Log in

One click and you are in

Login with Facebook Login with Google

Why sign up and log in

Guitar Tabs Explorer
Motörhead tabs for Be my baby

Guitar tabs

intro/verse tune your guitar to drop A chord diagramD MajorD
----------------------------------------------|
----------------------------------------------|
----------------------------------------------|
-3-2-1-0-1-0-0-1-0-0-1--3-2-1-0-1-0-0-1-0-0-1-|
-3-2-1-0-1-0-0-1-0-0-1--3-2-1-0-1-0-0-1-0-0-1-|
-3-2-1-0-1-0-0-1-0-0-1--3-2-1-0-1-0-0-1-0-0-1-|
pre-chorus
-----------|
-----------|
-----------|
---0-------|
---0-2-3-5-|
-0--0-0-0--|
not too sure about that


chorus
--------------------|
--------------------|
---------/5--5-5-55-|
---------/5--5-5-55-|
-3-5-3-5-/3--3-3-33-|
-3-3-3-3------------|

at 2:05
---------------------------------|
----10-12-11-10-8----------------|
-12---------------10-10h11p10----|
---------------------------------|
---------------------------------|
---------------------------------|

---------------------------------|
----10-12-11-10-8----------------|
-12---------------10-11----------|
---------------------------------|
---------------------------------|
---------------------------------|

not sure about that too

Other versions of Be My Baby

Be my babyChords

Almost there ...

Sign in to get your own page with links to favourite songs and more. You are just one click away...

Login with Facebook Login with Google