Log in

One click and you are in

Login with Facebook Login with Google

Why sign up and log in

Guitar Tabs Explorer
Motorama bass tabs for Sailors song

Bass tabs

Tuning: Standard (E A D G)


Intro:

 1 + 2 + 3 + 4 +  1 + 2 + 3 + 4 +  1 + 2 + 3 + 4 +  1 + 2 + 3 + 4 +    \
G|------------------------|------------------------|------------------------|------------------------|   |
D|------------------------|------------------------|------------------------|------------------------| play |p
A|6--6--6--6--6--6--6--6--|6--6--6--6--6--6--6--6--|3--3--3--3--3--3--3--3--|3--3--3--3--3--3--3-/8--| x1 |l
E|------------------------|------------------------|------------------------|------------------------|   |a

                                                    |y
 1 + 2 + 3 + 4 +  1 + 2 + 3 + 4 +  1 + 2 + 3 + 4 +  1 + 2 + 3 + 4 +     |
G|------------------------|------------------------|------------------------|------------------------|   |x
D|------------------------|------------------------|------------------------|------------------------| play |2
A|10-10-10-10-10-10-10-10-|10-10-10-10-10-10-10-10-|8--8--8--8--8--8--8--8--|8--8--8--8--8--8--8--8--| x1 |
E|------------------------|------------------------|------------------------|------------------------|   /


Verse 1:

 1 + 2 + 3 + 4 +  1 + 2 + 3 + 4 +  1 + 2 + 3 + 4 +  1 + 2 + 3 + 4 +    \
G|------------------------|------------------------|------------------------|------------------------|   |
D|------------------------|------------------------|------------------------|------------------------| play |p
A|6--6--6--6--6--6--6--6--|6--6--6--6--6--6--6--6--|3--3--3--3--3--3--3--3--|3--3--3--3--3--3--3-/8--| x1 |l
E|------------------------|------------------------|------------------------|------------------------|   |a
                                                      |y
 1 + 2 + 3 + 4 +  1 + 2 + 3 + 4 +  1 + 2 + 3 + 4 +  1 + 2 + 3 + 4 +     |
G|------------------------|------------------------|------------------------|------------------------|   |x
D|------------------------|------------------------|------------------------|------------------------| play |2
A|10-10-10-10-10-10-10-10-|10-10-10-10-10-10-10-10-|8--8--8--8--8--8--8--8--|8--8--8--8--8--8--8--8--| x1 |
E|------------------------|------------------------|------------------------|------------------------|   /

Interlude:

 1 + 2 + 3 + 4 +  1 + 2 + 3 + 4 +  1 + 2 + 3 + 4 +  1 + 2 + 3 + 4 +
G|------------------------|------------------------|------------------------|------------------------|
D|------------------------|------------------------|------------------------|------------------------| play
A|6--6--6--6--6--6--6--6--|6--6--6--6--6--6--6--6--|3--3--3--3--3--3--3--3--|3--3--3--3--3--3--3-/8--| x1
E|------------------------|------------------------|------------------------|------------------------|

 1 + 2 + 3 + 4 +  1 + 2 + 3 + 4 +  1 + 2 + 3 + 4 +  1 + 2 + 3 + 4 +
G|------------------------|------------------------|------------------------|------------------------|
D|------------------------|------------------------|------------------------|------------------------| play
A|10-10-10-10-10-10-10-10-|10-10-10-10-10-10-10-10-|8--8--8--8--8--8--8--8--|8--8--8--8--8--8--8--8--| x1
E|------------------------|------------------------|------------------------|------------------------|


Chorus:

 1 + 2 + 3 + 4 +  1 + 2 + 3 + 4 +  1 + 2 + 3 + 4 +  1 + 2 + 3 + 4 +    \
G|------------------------|------------------------|------------------------|------------------------|   |
D|------------------------|------------------------|------------------------|------------------------| play |p
A|6--6--6--6--6--6--6--6--|6--6--6--6--6--6--6--6--|3--3--3--3--3--3--3--3--|3--3--3--3--3--3--3-/8--| x1 |l
E|------------------------|------------------------|------------------------|------------------------|   |a
                                                      |y
 1 + 2 + 3 + 4 +  1 + 2 + 3 + 4 +  1 + 2 + 3 + 4 +  1 + 2 + 3 + 4 +     |
G|------------------------|------------------------|------------------------|------------------------|   |x
D|------------------------|------------------------|------------------------|------------------------| play |2
A|10-10-10-10-10-10-10-10-|10-10-10-10-10-10-10-10-|8--8--8--8--8--8--8--8--|8--8--8--8--8--8--8--8--| x1 |
E|------------------------|------------------------|------------------------|------------------------|   /


Verse 2:

 1 + 2 + 3 + 4 +  1 + 2 + 3 + 4 +  1 + 2 + 3 + 4 +  1 + 2 + 3 + 4 +    \
G|------------------------|------------------------|------------------------|------------------------|   |
D|------------------------|------------------------|------------------------|------------------------| play |p
A|6--6--6--6--6--6--6--6--|6--6--6--6--6--6--6--6--|3--3--3--3--3--3--3--3--|3--3--3--3--3--3--3-/8--| x1 |l
E|------------------------|------------------------|------------------------|------------------------|   |a
                                                      |y
 1 + 2 + 3 + 4 +  1 + 2 + 3 + 4 +  1 + 2 + 3 + 4 +  1 + 2 + 3 + 4 +     |
G|------------------------|------------------------|------------------------|------------------------|   |x
D|------------------------|------------------------|------------------------|------------------------| play |2
A|10-10-10-10-10-10-10-10-|10-10-10-10-10-10-10-10-|8--8--8--8--8--8--8--8--|8--8--8--8--8--8--8--8--| x1 |
E|------------------------|------------------------|------------------------|------------------------|   /


Interlude:

 1 + 2 + 3 + 4 +  1 + 2 + 3 + 4 +  1 + 2 + 3 + 4 +  1 + 2 + 3 + 4 +    \
G|------------------------|------------------------|------------------------|------------------------|   |
D|------------------------|------------------------|------------------------|------------------------| play |p
A|6--6--6--6--6--6--6--6--|6--6--6--6--6--6--6--6--|3--3--3--3--3--3--3--3--|3--3--3--3--3--3--3-/8--| x1 |l
E|------------------------|------------------------|------------------------|------------------------|   |a
                                                      |y
 1 + 2 + 3 + 4 +  1 + 2 + 3 + 4 +  1 + 2 + 3 + 4 +  1 + 2 + 3 + 4 +     |
G|------------------------|------------------------|------------------------|------------------------|   |x
D|------------------------|------------------------|------------------------|------------------------| play |2
A|10-10-10-10-10-10-10-10-|10-10-10-10-10-10-10-10-|8--8--8--8--8--8--8--8--|8--8--8--8--8--8--8--8--| x1 |
E|------------------------|------------------------|------------------------|------------------------|   /


Chorus:

 1 + 2 + 3 + 4 +  1 + 2 + 3 + 4 +  1 + 2 + 3 + 4 +  1 + 2 + 3 + 4 +    \
G|------------------------|------------------------|------------------------|------------------------|   |
D|------------------------|------------------------|------------------------|------------------------| play |p
A|6--6--6--6--6--6--6--6--|6--6--6--6--6--6--6--6--|3--3--3--3--3--3--3--3--|3--3--3--3--3--3--3-/8--| x1 |l
E|------------------------|------------------------|------------------------|------------------------|   |a
                                                      |y
 1 + 2 + 3 + 4 +  1 + 2 + 3 + 4 +  1 + 2 + 3 + 4 +  1 + 2 + 3 + 4 +     |
G|------------------------|------------------------|------------------------|------------------------|   |x
D|------------------------|------------------------|------------------------|------------------------| play |2
A|10-10-10-10-10-10-10-10-|10-10-10-10-10-10-10-10-|8--8--8--8--8--8--8--8--|8--8--8--8--8--8--8--8--| x1 |
E|------------------------|------------------------|------------------------|------------------------|   /


Outro:

 1 + 2 + 3 + 4 +  1 + 2 + 3 + 4 +  1 + 2 + 3 + 4 +  1 + 2 + 3 + 4 +    \
G|------------------------|------------------------|------------------------|------------------------|   |
D|------------------------|------------------------|------------------------|------------------------| play |p
A|6--6--6--6--6--6--6--6--|6--6--6--6--6--6--6--6--|3--3--3--3--3--3--3--3--|3--3--3--3--3--3--3-/8--| x1 |l
E|------------------------|------------------------|------------------------|------------------------|   |a
                                                      |y
 1 + 2 + 3 + 4 +  1 + 2 + 3 + 4 +  1 + 2 + 3 + 4 +  1 + 2 + 3 + 4 +     |
G|------------------------|------------------------|------------------------|------------------------|   |x
D|------------------------|------------------------|------------------------|------------------------| play |3
A|10-10-10-10-10-10-10-10-|10-10-10-10-10-10-10-10-|8--8--8--8--8--8--8--8--|8--8--8--8--8--8--8--8--| x1 |
E|------------------------|------------------------|------------------------|------------------------|   /


************************************

| / Slide up

************************************

Almost there ...

Sign in to get your own page with links to favourite songs and more. You are just one click away...

Login with Facebook Login with Google