Log in

One click and you are in

Login with Facebook Login with Google

Why sign up and log in

Guitar Tabs Explorer
Motorama bass tabs for Little mystery

Bass tabs

Intro:

Rest 4 measures, then...

 1 e + a 2 e + a 3 e + a 4 e + a  1 e + a 2 e + a 3 e + a 4 e + a    \
G|------------------------------------------------|------------------------------------------------|   |
D|------------------------------x-----x--------x--|x-----------------------------x-----x-----------| play | p
A|8/10--------------------10-10-x--8--x-----10-x--|x-----------------------10-10-x--8--x-----10----| x1 | l
E|------------------------------------------------|------------------------------------------------|   | a
                                                     | y
 1 e + a 2 e + a 3 e + a 4 e + a  1 e + a 2 e + a 3 e + a 4 e + a     |
G|------------------------------------------------|------------------------------------------------|   | x
D|------------------------------x-----x--------x--|x-----------------------------x-----x-----------| play | 2
A|8-----------------------10-10-x--8--x-----10-x--|x-----------------------------x--6--x--------6--| x1 |
E|------------------------------------------------|---------------------6--8--8--------------------|   /

Verse 1:

 1 e + a 2 e + a 3 e + a 4 e + a
G|------------------------------------------------|
D|------------------------------------------------| play x1,
A|8/10--------------------------------------------| then rest for 7 measures
E|------------------------------------------------|

 1 e + a 2 e + a 3 e + a 4 e + a  1 e + a 2 e + a 3 e + a 4 e + a    \
G|------------------------------------------------|------------------------------------------------|   |
D|------------------------------x-----x--------x--|x-----------------------------x-----x-----------| play | p
A|8/10--------------------10-10-x--8--x-----10-x--|x-----------------------10-10-x--8--x-----10----| x1 | l
E|------------------------------------------------|------------------------------------------------|   | a
                                                     | y
 1 e + a 2 e + a 3 e + a 4 e + a  1 e + a 2 e + a 3 e + a 4 e + a     |
G|------------------------------------------------|------------------------------------------------|   | x
D|------------------------------x-----x--------x--|x-----------------------------x-----x-----------| play | 2
A|8-----------------------10-10-x--8--x-----10-x--|x-----------------------------x--6--x--------6--| x1 |
E|------------------------------------------------|---------------------6--8--8--------------------|   /


Chorus:

 1 e + a 2 e + a 3 e + a 4 e + a  1 e + a 2 e + a 3 e + a 4 e + a    \
G|------------------------------------------------|------------------------------------------------|   |
D|------------------------------x-----x--------x--|x-----------------------------x-----x-----------| play | p
A|8/10--------------------10-10-x--8--x-----10-x--|x-----------------------10-10-x--8--x-----10----| x1 | l
E|------------------------------------------------|------------------------------------------------|   | a
                                                     | y
 1 e + a 2 e + a 3 e + a 4 e + a  1 e + a 2 e + a 3 e + a 4 e + a     |
G|------------------------------------------------|------------------------------------------------|   | x
D|------------------------------x-----x--------x--|x-----------------------------x-----x-----------| play | 4
A|8-----------------------10-10-x--8--x-----10-x--|x-----------------------------x--6--x--------6--| x1 |
E|------------------------------------------------|---------------------6--8--8--------------------|   /


Verse 2:

 1 e + a 2 e + a 3 e + a 4 e + a
G|------------------------------------------------|
D|------------------------------------------------| play x1,
A|8/10--------------------------------------------| then rest for 15 measures
E|------------------------------------------------|


Chorus:

 1 e + a 2 e + a 3 e + a 4 e + a  1 e + a 2 e + a 3 e + a 4 e + a    \
G|------------------------------------------------|------------------------------------------------|   |
D|------------------------------x-----x--------x--|x-----------------------------x-----x-----------| play | p
A|8/10--------------------10-10-x--8--x-----10-x--|x-----------------------10-10-x--8--x-----10----| x1 | l
E|------------------------------------------------|------------------------------------------------|   | a
                                                     | y
 1 e + a 2 e + a 3 e + a 4 e + a  1 e + a 2 e + a 3 e + a 4 e + a     |
G|------------------------------------------------|------------------------------------------------|   | x
D|------------------------------x-----x--------x--|x-----------------------------x-----x-----------| play | 4
A|8-----------------------10-10-x--8--x-----10-x--|x-----------------------------x--6--x--------6--| x1 |
E|------------------------------------------------|---------------------6--8--8--------------------|   /


Outro:

 1 e + a 2 e + a 3 e + a 4 e + a
G|------------------------------------------------||
D|------------------------------------------------|| play
A|8/10--------------------------------------------|| x1
E|------------------------------------------------||

Almost there ...

Sign in to get your own page with links to favourite songs and more. You are just one click away...

Login with Facebook Login with Google