Log in

One click and you are in

Login with Facebook Login with Google

Why sign up and log in

Guitar Tabs Explorer
Motorama bass tabs for Azure height

Bass tabs

Tuning: Standard (E A D G)


Intro:

Rest 2 measures, then...

 1 + 2 + 3 + 4 + 1 + 2 + 3 + 4 + 1 + 2 + 3 + 4 + 1 + 2 + 3 + 4 +    \
G|----------------|----------------|----------------|----------------|   |
D|----5-5-7-7-7-5-|x-5-x-5-7-7-5-x-|----5-5-7-7-7-5-|x-5-x-5-7-7-5-x-| play |
A|0-0-------------|x---x---------x-|7-7-------------|x---x---------x-| x1 |
E|----------------|----------------|----------------|----------------|   |

                                      | play
 1 + 2 + 3 + 4 + 1 + 2 + 3 + 4 + 1 + 2 + 3 + 4 + 1 + 2 + 3 + 4 +    | x2
G|----------------|----------------|----------------|----------------|   |
D|----5-5-7-7-7-5-|x-5-x-5-7-7-5-x-|3-3-5-5-7-7-7-5-|x-5-x-5-7-7-5-x-| play |
A|----------------|x---x---------x-|----------------|x---x---------x-| x1 |
E|3-3-------------|----------------|----------------|----------------|   /


Verse 1:

 1 + 2 + 3 + 4 + 1 + 2 + 3 + 4 + 1 + 2 + 3 + 4 + 1 + 2 + 3 + 4 +    \
G|----------------|----------------|----------------|----------------|   |
D|----5-5-7-7-7-5-|x-5-x-5-7-7-5-x-|----5-5-7-7-7-5-|x-5-x-5-7-7-5-x-| play |
A|0-0-------------|x---x---------x-|7-7-------------|x---x---------x-| x1 |
E|----------------|----------------|----------------|----------------|   |
                                      | play
 1 + 2 + 3 + 4 + 1 + 2 + 3 + 4 + 1 + 2 + 3 + 4 + 1 + 2 + 3 + 4 +    | x2
G|----------------|----------------|----------------|----------------|   |
D|----5-5-7-7-7-5-|x-5-x-5-7-7-5-x-|3-3-5-5-7-7-7-5-|x-5-x-5-7-7-5-x-| play |
A|----------------|x---x---------x-|----------------|x---x---------x-| x1 |
E|3-3-------------|----------------|----------------|----------------|   /

Interlude:

Rest for 8 measures, then...

 1 + 2 + 3 + 4 + 1 + 2 + 3 + 4 + 1 + 2 + 3 + 4 + 1 + 2 + 3 + 4 +
G|----------------|----------------|----------------|----------------|
D|----------------|----------------|----------------|----------------| play
A|----------------|--------------5-|7-7-7-7-7-7-7-7-|7-7-7-7-7-7-7-7-| x1
E|5-5-5-5-5-5-5-5-|5-5-5-5-5-5-5---|----------------|----------------|

 1 + 2 + 3 + 4 + 1 + 2 + 3 + 4 + 1 + 2 + 3 + 4 + 1 + 2 + 3 + 4 +
G|----------------|----------------|----------------|----------------|
D|----------------|----------------|----------------|----------------| play
A|----------------|--------------5-|8-8-8-8-8-8-8-8-|8-8-8-8-8-8-8-0-| x1
E|3-3-3-3-3-3-3-3-|3-3-3-3-3-3-3---|----------------|----------------|

 1 + 2 + 3 + 4 + 1 + 2 + 3 + 4 + 1 + 2 + 3 + 4 + 1 + 2 + 3 + 4 +
G|----------------|----------------|----------------|----------------|
D|----5-5-7-7-7-5-|x-5-x-5-7-7-5-x-|----5-5-7-7-7-5-|x-5-x-5-7-7-5-x-| play
A|0-0-------------|x---x---------x-|7-7-------------|x---x---------x-| x1
E|----------------|----------------|----------------|----------------|

 1 + 2 + 3 + 4 + 1 + 2 + 3 + 4 + 1 + 2 + 3 + 4 + 1 + 2 + 3 + 4 +
G|----------------|----------------|----------------|----------------|
D|----5-5-7-7-7-5-|x-5-x-5-7-7-5-x-|3-3-5-5-7-7-7-5-|x-5-x-5-7-7-5-x-| play
A|5-5-------------|x---x---------x-|----------------|x---x---------x-| x1
E|----------------|----------------|----------------|----------------|


Verse 2:

 1 + 2 + 3 + 4 + 1 + 2 + 3 + 4 + 1 + 2 + 3 + 4 + 1 + 2 + 3 + 4 +    \
G|----------------|----------------|----------------|----------------|   |
D|----5-5-7-7-7-5-|x-5-x-5-7-7-5-x-|----5-5-7-7-7-5-|x-5-x-5-7-7-5-x-| play |
A|0-0-------------|x---x---------x-|7-7-------------|x---x---------x-| x1 |
E|----------------|----------------|----------------|----------------|   |
                                      | play
 1 + 2 + 3 + 4 + 1 + 2 + 3 + 4 + 1 + 2 + 3 + 4 + 1 + 2 + 3 + 4 +    | x2
G|----------------|----------------|----------------|----------------|   |
D|----5-5-7-7-7-5-|x-5-x-5-7-7-5-x-|3-3-5-5-7-7-7-5-|x-5-x-5-7-7-5-x-| play |
A|5-5-------------|x---x---------x-|----------------|x---x---------x-| x1 |
E|----------------|----------------|----------------|----------------|   /


Interlude:

Rest for 8 measures, then...

 1 + 2 + 3 + 4 + 1 + 2 + 3 + 4 + 1 + 2 + 3 + 4 + 1 + 2 + 3 + 4 +
G|----------------|----------------|----------------|----------------|
D|----------------|----------------|----------------|----------------| play
A|----------------|--------------5-|7-7-7-7-7-7-7-7-|7-7-7-7-7-7-7-7-| x1
E|5-5-5-5-5-5-5-5-|5-5-5-5-5-5-5---|----------------|----------------|

 1 + 2 + 3 + 4 + 1 + 2 + 3 + 4 + 1 + 2 + 3 + 4 + 1 + 2 + 3 + 4 +
G|----------------|----------------|----------------|----------------|
D|----------------|----------------|----------------|----------------| play
A|----------------|--------------5-|8-8-8-8-8-8-8-8-|8-8-8-8-8-8-8-0-| x1
E|3-3-3-3-3-3-3-3-|3-3-3-3-3-3-3---|----------------|----------------|


Outro:

 1 + 2 + 3 + 4 + 1 + 2 + 3 + 4 + 1 + 2 + 3 + 4 + 1 + 2 + 3 + 4 +    \
G|----------------|----------------|----------------|----------------|   |
D|----5-5-7-7-7-5-|x-5-x-5-7-7-5-x-|----5-5-7-7-7-5-|x-5-x-5-7-7-5-x-| play |
A|0-0-------------|x---x---------x-|7-7-------------|x---x---------x-| x1 |
E|----------------|----------------|----------------|----------------|   |
                                      | play
 1 + 2 + 3 + 4 + 1 + 2 + 3 + 4 + 1 + 2 + 3 + 4 + 1 + 2 + 3 + 4 +    | x2
G|----------------|----------------|----------------|----------------|   |
D|----5-5-7-7-7-5-|x-5-x-5-7-7-5-x-|3-3-5-5-7-7-7-5-|x-5-x-5-7-7-5-x-| play |
A|5-5-------------|x---x---------x-|----------------|x---x---------x-| x1 |
E|----------------|----------------|----------------|----------------|   /

*******************

x = rest

*******************

Almost there ...

Sign in to get your own page with links to favourite songs and more. You are just one click away...

Login with Facebook Login with Google