Log in

One click and you are in

Login with Facebook Login with Google

Why sign up and log in

Guitar Tabs Explorer
Mötley Crüe tabs for Too fast for love

Guitar tabs with lyrics

with SMTP id <AA19099>; Sun, 21 Feb 1993 23:25:08 -0800
	id AA02100; Mon, 22 Feb 93 02:25:13 EST for jamesb@nevada.edu
	id AA193149; Mon, 22 Feb 93 02:24:55 -0500 for jamesb@nevada.edu
Transcribed by me, myself, and I (just slightly schizophrenic)
Diversion (rogerj@rpi.edu)

Motley Crue, Too Fast For Love (Title track off first album)
Dropped a full step (d-g-c-f-a-d, low to high)


[intro]
          p     p     p     p     h  p  h    (sim.)
---------------------------------------------------------------
---------------------------------------------------------------
-0-----2--0--3--0--4--0--5--0--6--7--6--7---0----2--0--3--0----
-0-------------------------------------------------------------
---------------------------------------------------------------
---------------------------------------------------------------


---------------------------------------------------------------
---------------------------------------------------------------
-4--0--5--0--6--7--6--7----------------------------------------
--------------------------0----2--0--3--0--4--0--5--0--6--7--6-
---------------------------------------------------------------
---------------------------------------------------------------

                                             [begin riff 1]
---------------------------------------------------------------
---------------------------------------------------------------
---------------------------------------------------------------
-7---0----2--0--3--0--4--0--5--0--6--7--6--7-------------------
-----------------------------------------------0----2--0--3--0-
---------------------------------------------------------------

                                                              [end riff 1]
------------------------------------------------------------------
------------------------------------------------------------------
------------------------------------------------------------------
------------------------------------------------------------------
-4--0--5--0--6--7--6--7---0----2--0--3--0--4--0--5--0--6--7--6--7-
------------------------------------------------------------------

---------------------------------------------------------------
---------------------------------------------------------------
---------------------------------------------------------------
---------------------------------------------------------------
---------------------------------------------------------------
-0----2--0--3--0--4--0--5--0--6--7--6--7---0----2--0--3--0--4--


----------------------
----------------------
----------------------
----------------------
----------------------
-0--5--0--6--7--6--7--

[play riff 1, then begin verse]
[Remember, the guitar is tuned down - these are concert pitch]

[verse]

A chord diagramD5D5 [7. fret]                 A chord diagramF#5F#5 [4. fr]
/   /   /   /.  /   ~        /   /   /   /.  /   ~
|___|___|   |___|   /  [4x]  |___|___|   |___|   /  [2x]
                    ^
        rest--------^

(approx rhythm, listen to the song to get it; it's not hard)
[5. fr]                     [7.fr]
A chord diagramG5G5     G5/D A chord diagramG5G5              A chord diagramD5D5
/   /   /   /.  /   ~       /   /   /   /.  /   ~       /   /   /
|___|___|   |___|   / [2x]  |___|___|   |___|   / [1x]  |___|   |  [2x]

[play riff 1, repeat verse, then chorus]


[chorus]
A5[7.fr]               G5[5.fr]
/  /  ~  /  /  /. /    /  /  ~  /  /  /. /
|__|  /  |__|__|__|    |__|  /  |__|__|__|

D5[7.fr]
/  /  ~  /  /  /. /
|__|  /  |__|__|__|

------------------------------------------------
------------------------------------------------
------------------------------------------------
------------------------------------------------
-5--5--4--4--2--2--0--0-------------------------
-------------------------4--4--2--2--0--0--2/7--

A5[7.fr]               G5[5.fr]
/  /  ~  /  /  /. /    /  /  ~  /  /  /. /
|__|  /  |__|__|__|    |__|  /  |__|__|__|

D5[7.fr]               C5[5.fr]
/  /  ~  /  /  /. /    /
|__|  /  |__|__|__|    |

[play riff 1, then verse]

This is the basic idea (and all I can write from memory, without the song
playing). The structure might be a bit off, but it's just these parts moved
around. The ending is the last half of the chorus a bunch of times and a
noisy riff that I play

-----------------------------------------17--19--21---------------
---------------------------------17--19---------------------------
---------------------14--16--18-----------------------------------
-------------14--16-----------------------------------------------
-12--14--16-------------------------------------------------------
------------------------------------------------------------------

with TONS o' distortion. (A chord diagramE minorEm pentatonic from A chord diagramG+G).

Enjoy, all!

Diversion

Almost there ...

Sign in to get your own page with links to favourite songs and more. You are just one click away...

Login with Facebook Login with Google