Log in

One click and you are in

Login with Facebook Login with Google

Why sign up and log in

Guitar Tabs Explorer
Mötley Crüe tabs for Shout at the devil

Guitar tabs

Shout at the Devil (original)
Release: 1983
Performed by Motley Crue (Written by Nikki Sixx)
Submitted by: randi.k
Tab Explanation
h = hammer
p = pulloff
/ = slide


Intro  (this part x 2)
e----------hold-----------------hold---------
b---------3--------------------5-----------
g---------3--------------------5---------
d---------3--------------------5-----------
a------------------------------------------
E--3-3-------------------3-3------------------
  Mute



(this part x 2)
¨Shout      Shout     ...
e-----------------------------------------
b-------3-------5--------3--------------------
g-------3-------5--------3-----------------5p3-----
d-------3-------5--------3----------3-------------
a-------------------------------3h5-----5-------
E---3-3-----3-3------3-3---------------------------
Mute the low e string


(this part x 2 with the intro lead over it)
e-----------------------------------------
b-------3-------5--------3--------------------
g-------3-------5--------3-----------------5p3-----
d-------3-------5--------3----------3-------------
a-------------------------------3h5-----5-------
E---3-3-----3-3------3-3---------------------------
Mute the low e string



Intro Lead

------------------------------------------
---/11----/10--/8-----/11--/13--/15-----
------------------------------------------
------------------------------------------
------------------------------------------
------------------------------------------



Verse

------------------------------------------
------------------------------------------
--5----3----------3----5----3----------------
--5----3-----5----3----5----3----5-------------
--3----1-----5----1----3----1----5------------
-------------3--------------------3---------




Chorus


¨Shout      Shout     shout     ...
e-----------------------------------------
b-------3-------5--------3--------------------
g-------3-------5--------3-----------------5p3-----
d-------3-------5--------3----------3-------------
a-------------------------------3h5-----5-------
E---3-3-----3-3------3-3---------------------------
Mute the low e string

----------------------------------------------------------------------

Other versions of Shout At The Devil

Shout at The Devil (Ver. 2)Tabs
Shout at The Devil 97Tabs

Almost there ...

Sign in to get your own page with links to favourite songs and more. You are just one click away...

Login with Facebook Login with Google