Log in

One click and you are in

Login with Facebook Login with Google

Why sign up and log in

Guitar Tabs Explorer
Mötley Crüe bass tabs for Shout at the devil

Bass tabs

Its not the whole song but its most of it.


Tab Explanation
h = hammer
p = pulloff
/ = slide

Intro (this part x 2)

g---------hold------------------HOLD-----------
d--------3---------------------5-----------
a------------------------------------------
E--3-3-3------------------3-3-3-----------------




(this part x 2)
"Shout   Shout   ...
g------------------------------------------5p3---
d-------3--------5---------3----------3----------
a-------------------------------3h5-----5-------
E--3-3-3----3-3-3-----3-3-3---------------------




g------------------------------------------5p3---
d-------3-------5--------3----------3------------
a-------------------------------3h5-----5-------
E--3-3-3---3-3-3----3-3-3------------------------


Verse

--------------------------------------------
--------------------------------------------
--3----1----------1----3----1----5----------
-------------3--------------------3---------

Chorus

"Shout   Shout   shout   ...
g------------------------------------------5p3---
d-------3-------5--------3----------3------------
a-------------------------------3h5-----5--------
E--3-3-3---3-3-3----3-3-3------------------------

Other versions of Shout At The Devil

Shout at The Devil (Ver. 2)Bass tabs

Almost there ...

Sign in to get your own page with links to favourite songs and more. You are just one click away...

Login with Facebook Login with Google