Log in

One click and you are in

Login with Facebook Login with Google

Why sign up and log in

Guitar Tabs Explorer
Mötley Crüe bass tabs for Save our souls

Bass tabs with lyrics

D tuning (DGCF)

PERFORMANCE NOTE: Full disclosure, I couldn't make out the fill
Nikki plays in the last bar of Verse 3 (as you'll notice by all
the question marks I placed above the bar lol). I wrote it as
the same fill he uses in the previous verses, just so you'll have
something to play there.

LEGEND:
r = rest
h = hammer on
/ = slide up
\ = slide down
() = sustained note

INTRO (x2):

F |---------------------------------|---------------------------------|
C |-----------------2-0-------------|---------------------------------|
G |-0-------0-----------3-2---3-2---|-5-------5-------3-2---3---2-----|
D |-------------------------------3-|---------------3-----3-------3---|
    1   &   2   &   3   &   4   &     1   &   2   &   3   &   4   &


VERSE 1 (Repeat 1st staff x3):

F |---------------------------------|---------------------------------|
C |---------------------------------|---------------------------------|
G |-0---r---0---r---0---r---0-3-----|-5---r---5---r---5---r---5-3-----|
D |---------------------------------|---------------------------------|
    1   &   2   &   3   &   4   &     1   &   2   &   3   &   4   &

F |---------------------------------|---------------------------------|
C |---------------------------------|-----------------7-5-------------|
G |-0---r---0---r---0---r---0-3-----|-5---r---5---r-5-----7-6-6-5-3---|
D |---------------------------------|-------------------------------0-|
    1   &   2   &   3   &   4   &     1   &   2   &   3   &   4   &


CHORUS 1:

F |---------------------------------|---------------------------------|
C |---------------------------------|---------------------------------|
G |-3-------3---3-0-5-------5---5---|---------------------------------|
D |-------------------------------0-|-3-5-5-5-5-------3-5-5-5-5-------|
    1   &   2   &   3   &   4   &     1   &   2   &   3   &   4   &

F |---------------------------------|---------------------------------|
C |---------------------------------|---------------------------------|
G |-3-------3---3-------------------|---------------------------------|
D |---------------0-3-------3---3-0-|-3-5-5-5-5-------3-5-5-5-5-------|
    1   &   2   &   3   &   4   &     1   &   2   &   3   &   4   &

F |---------------------------------|---------------------------------|
C |---------------------------------|---------------------------------|
G |-3-------3---5h7-5-------5-------|---------------------------------|
D |-----------------------------0---|-3-5-5-5-5-------3-5-5-5-5-----0-|
    1   &   2   &   3   &   4   &     1   &   2   &   3   &   4   &

F |---------------------------------|---------------------------------|
C |---------------------------------|---------------------------------|
G |---------------------------------|-0-------------------------------|
D |-1---------------3---------------|---------------------------------|
    1   &   2   &   3   &   4   &     1   &   2   &   3   &   4   &


PRE-VERSE (x2):

F |---------------------------------|---------------------------------|
C |-----------------2-0-------------|---------------------------------|
G |-0-------0-----------3-2---3-2---|-5-------5-------3-2---3---2-----|
D |-------------------------------3-|---------------3-----3-------3---|
    1   &   2   &   3   &   4   &     1   &   2   &   3   &   4   &


VERSE 2 (Repeat 1st staff x3):

F |---------------------------------|---------------------------------|
C |---------------------------------|---------------------------------|
G |-0---r---0---r---0---r---0-3-----|-5---r---5---r---5---r---5-3-----|
D |---------------------------------|---------------------------------|
    1   &   2   &   3   &   4   &     1   &   2   &   3   &   4   &

F |---------------------------------|---------------------------------|
C |---------------------------------|-----------------7-5-------------|
G |-0---r---0---r---0---r---0-3-----|-5---r---5---r-5-----7-6-6-5-3---|
D |---------------------------------|-------------------------------0-|
    1   &   2   &   3   &   4   &     1   &   2   &   3   &   4   &


CHORUS 2:

F |---------------------------------|---------------------------------|
C |---------------------------------|---------------------------------|
G |-3-------3---3-0-5-------5-------|---------------------------------|
D |-----------------------------0---|-3-5-5-5-5-------3-5-5-5-5-------|
    1   &   2   &   3   &   4   &     1   &   2   &   3   &   4   &

F |---------------------------------|---------------------------------|
C |---------------------------------|---------------------------------|
G |-3-------3---3-------------------|---------------------------------|
D |---------------0-3-------3---3-0-|-3-5-5-5-5-------3-5-5-5-5-------|
    1   &   2   &   3   &   4   &     1   &   2   &   3   &   4   &

F |---------------------------------|---------------------------------|
C |---------------------------------|---------------------------------|
G |-3-------3---5h7-5-------5-------|---------------------------------|
D |-----------------------------0---|-3-5-5-5-5-------3-5-5-5-5---\-0-|
    1   &   2   &   3   &   4   &     1   &   2   &   3   &   4   &

F |---------------------------------|---------------------------------|---------------------------------|
C |---------------------------------|---------------------------------|---------------------------------|
G |---------------------------------|-0-------------------------------|---------------------------------|
D |-1---------------3---------------|---------------------------------|-1---------------3-----------3---|
    1   &   2   &   3   &   4   &     1   &   2   &   3   &   4   &     1   &   2   &   3   &   4   &


GUITAR SOLO:

F |---------------------------------|---------------------------------|
C |---------------------------------|---------------------------------|
G |-0---r---0---r---0---r---0-3-----|-5---r---5---r---5---r---5-3-----|
D |---------------------------------|---------------------------------|
    1   &   2   &   3   &   4   &     1   &   2   &   3   &   4   &

F |---------------------------------|---------------------------------|
C |---------------------------------|-----------------7-5---7---5-----|
G |-0---r---0---r---0---r---0-3-----|-5---r---5---r-------7-------7---|
D |---------------------------------|---------------------------------|
    1   &   2   &   3   &   4   &     1   &   2   &   3   &   4   &

F |---------------------------------|---------------------------------|
C |---------------------------------|---------------------------------|
G |-0---r---0---r---0---r---0-3-----|-5---r---5---r---5---r---5---r---|
D |---------------------------------|---------------------------------|
    1   &   2   &   3   &   4   &     1   &   2   &   3   &   4   &

F |---------------------------------|---------------------------------|
C |---------------------------------|-----------------7-5-------------|
G |-0---r---0---r---0---r---0-3-----|-5---r---5---r-5-----7-6-6-5-3---|
D |---------------------------------|-------------------------------0-|
    1   &   2   &   3   &   4   &     1   &   2   &   3   &   4   &


INTERLUDE:

F |---------------------------------|---------------------------------|
C |---------------------------------|---------------------------------|
G |-3-------3---5h7-5-------5-------|---------------------------------|
D |-----------------------------5-\-|-3-5-5-5-5-------3-5-5-5-5-----3-|
    1   &   2   &   3   &   4   &     1   &   2   &   3   &   4   &

F |---------------------------------|---------------------------------|
C |---------------------------------|---------------------------------|
G |-3-------3-----------------------|---------------------------------|
D |-----------------3-------3-------|-3-5-5-5-5-------3-5-5-5-5-----5-|
    1   &   2   &   3   &   4   &     1   &   2   &   3   &   4   &

F |---------------------------------|---------------------------------|
C |---------------------------------|---------------------------------|
G |-3-------3---5h7-5-------5-------|---------------------------------|
D |-----------------------------5-\-|-3-5-5-5-5-------3-5-5-5-5-----0-|
    1   &   2   &   3   &   4   &     1   &   2   &   3   &   4   &

  6/4
F |-------------------------------------------------|
C |-------------------------------------------------|
G |-------------------------------------------------|
D |-1---------------3-------------------------------|
    1   &   2   &   3   &   4   &   5   &   6   &


VERSE 3 (Repeat 1st staff x3):
   4/4
F |---------------------------------|---------------------------------|
C |---------------------------------|---------------------------------|
G |-0---r---0---r---0---r---0-3-----|-5---r---5---r---5---r---5-3-----|
D |---------------------------------|---------------------------------|
    1   &   2   &   3   &   4   &     1   &   2   &   3   &   4   &

                                                      ? ? ? ? ? ? ? ?
F |---------------------------------|---------------------------------|
C |---------------------------------|-----------------7-5-------------|
G |-0---r---0---r---0---r---0-3-----|-5---r---5---r-5-----7-6-6-5-3---|
D |---------------------------------|-------------------------------0-|
    1   &   2   &   3   &   4   &     1   &   2   &   3   &   4   &


OUT-CHORUS:

F |---------------------------------|---------------------------------|
C |---------------------------------|---------------------------------|
G |-3-------3---3-/-5-------5-------|---------------------------------|
D |-----------------------------5-\-|-3-5-5-5-5-------3-5-5-5-5-------|
    1   &   2   &   3   &   4   &     1   &   2   &   3   &   4   &

F |---------------------------------|---------------------------------|
C |---------------------------------|---------------------------------|
G |-3-------3---3-------------------|---------------------------------|
D |-----------------3-------3---3-0-|-3-5-5-5-5-------3-5-5-5-5-------|
    1   &   2   &   3   &   4   &     1   &   2   &   3   &   4   &

F |---------------------------------|---------------------------------|
C |---------------------------------|---------------------------------|
G |-3-------3---5h7-5-------5---5---|---------------------------------|
D |---------------------------------|-3-5-5-5-5-------3-5-5-5-5-----0-|
    1   &   2   &   3   &   4   &     1   &   2   &   3   &   4   &

F |---------------------------------|---------------------------------|
C |---------------------------------|---------------------------------|
G |---------------------------------|-0-------------------------------|
D |-1---------------3---------------|---------------------------------|
    1   &   2   &   3   &   4   &     1   &   2   &   3   &   4   &

F |---------------------------------|---------------------------------|
C |---------------------------------|---------------------------------|
G |---------------------------------|-0-------------------------------|
D |-1---------------3---------------|---------------------------------|
    1   &   2   &   3   &   4   &     1   &   2   &   3   &   4   &

F |---------------------------------|---------------------------------|---------------------------------|
C |---------------------------------|---------------------------------|---------------------------------|
G |---------------------------------|-0-------------------------------|(0)----------------------0-r-----|
D |-1---------------3---------------|---------------------------------|---------------------------------|
    1   &   2   &   3   &   4   &     1   &   2   &   3   &   4   &     1   &   2   &   3   &   4   &

Almost there ...

Sign in to get your own page with links to favourite songs and more. You are just one click away...

Login with Facebook Login with Google