Log in

One click and you are in

Login with Facebook Login with Google

Why sign up and log in

Guitar Tabs Explorer
Mötley Crüe tabs for Misunderstood

Guitar tabs

Dropped A chord diagramD MajorD and tuned down a step


Intro (played on a 12-String)
d-------2---------2---------2--------2----------------------
A-----3---------3---------3--------3------------------------
F-----------------------------------------------------------
C--0-------0------------------------------------------------
G------------3-------3-2------2-0---------------------------
C--------------------------------------3^-------------------
Verse 1 (played on a 12-String)
d-------2---------2---------2--------2----------------------
A-----3---3-----3---------3--------3------------------------
F-----------------------------------------------------------
C-----------------------------------------------------------
G------------3-------3-2-------2-0--------------------------
C--0-----------------------------------3^-------------------


Chorus A chord diagramA augmentedA (Guitar 1)                                end on
d--0--0-0--0-0---3--3-3--3-3---2--2--2-2--2-2--2--|-0--3--2-
A--2--2-2--2-2---3--3-3--3-3---3--3--3-3--3-3--3--|-2--3--3-
F--2--2-2--2-2---0--0-0--0-0---2--2--2-2--2-2--2--|-2--0--2-
C--2--2-2--2-2---0--0-0--0-0---0--0--0-0--0-0--0--|-2--0--0-
G--0--0-0--0-0---2--2-2--2-2----------------------|-0--2----
C-------------------------------------------------|---------


Chorus A chord diagramBB (Mandolin arranged for Guitar 2)
d--12--12-12--15-15--15-15--17-17-17-17---------------------
A--14--14-14--15-15--15-15--17-17-17-17-15-12---------------
F--14--14-14--14-14--14-14--18-18-18-18-------14-12-11------
C------------------------------------------------------14-12
G-----------------------------------------------------------
C-----------------------------------------------------------

Riff
d-----------------------------------------------------------
A-----------------------------------------------------------
F---------------------------------5---0---------------------
C-----------3p0---------3p0-------5---0--------0------------
G-----------------------------2-3-3---2--0-2-3----3-2-------
C--0--0h3p0-------0h3p0-------------------------------3-----


Verse 2
d-----------------------------------------------------------
A-----------------------------------------------------------
F---------------------------------5---0---------------------
C-----------3p0-------------------5---0--------0------------
G-----------------------------2-3-3---2--0-2-3----3-2-------
C--0--0h3p0-------------------------------------------3-----


Chorus 2A (Guitar 1)
d-----------------------------------------------------------
A-----------------------------------------------------------
F----------7----------5-------------------------------------
C----------7----------5----------5--------------------------
G--5m--5m--5--3m--3m--3----------5--------------------------
C------------------------5m--5m--5--5m--5m--5m--5m----------

(continued)                                      end on
d-------------------------------------------------|---------
A-------------------------------------------------|---------
F----------7----------5---------------------------|--3----5-
C----------7----------5----------5--------0-------|--3----5-
G--5m--5m--5--3m--3m--3----------5--0-2-3---3-2---|--1----3-
C------------------------5m--5m--5--------------3-|---------


Chorus 2B (Guitar 2)
d-----------------------------------------------------------
A-----------------------------------------------------------
F------5-------3--------10v---------5-------3--------10v----
C----4-------2--------9-----------4-------2--------9--------
G--5-------3-------10-----------5-------3-------10----------
C-----------------------------------------------------------


Bridge 1
d-----------------------------------------------------------
A-----------------------------------------------------------
F-----------------------------------------------------------
C-----------3p0-------------3p0-----------------------------
G-------------------------------0-2-3--2-0------------------
C--0--0h3p0-----------0h3p0----------------3^---------------


Bridge 2 (Switch from Bridge 1 part way through the solo)
d-----------------------------------------------------------
A-----------------------------------------------------------
F--7---9---10---12---7---9---10---12----12------12------12--
C--7---9---10---12---7---9---10---12----12------12------12--
G--5---7----8---10---5---7----8---10----10------10------10--
C-----------------------------------------------------------


Solo
d--11-\-----------------------------------------------------
A--11-\----------------8-6----------------------------------
F----------7-5---5-7-------7----5----5----5----5--7v--------
C--------------7--------------7----7----7----7--------------
G-----------------------------------------------------------
C-----------------------------------------------------------

(continued)
d-----------------------------------------------------------
A-----------10-----13--12--10-----------7---8---9---10--10`-
F--10-11-12----10-------------10--11--7---7---7---7---------
C-----------------------------------------------------------
G-----------------------------------------------------------
C-----------------------------------------------------------

(continued)
d----------------10--8--------\10--10----10-------10--------
A--10`-10`-10`^---------10-8--\10-----10----10-10-----10-10-
F-----------------------------------------------------------
C-----------------------------------------------------------
G-----------------------------------------------------------
C-----------------------------------------------------------

(continued)
d-----10-------10----10--15-\14-----------------------------
A--10----10-10----10------------15\-------7---------8p7-----
F-------------------------------------/7-----7---7------7---
C-------------------------------------/7---------7----------
G-----------------------------------------------------------
C-----------------------------------------------------------

(continued)
d-----------------------10----------------------------------
A-----10----13----10--------12p10--------7--------8p7-------
F--10----10----10----10-----------12--7-----7--7------7-----
C-------------------------------------7--------7------------
G-----------------------------------------------------------
C-----------------------------------------------------------

(continued)
d-----------------------------------------------------------
A-----10----13----10----13--12p10-----10-------12-----------
F--10----10----10----10-----------12-----10-------12--------
C-------------------------------------------10-------12-----
G-----------------------------------------------------------
C-----------------------------------------------------------

(continued)
d-----------------------------------------------------------
A--10-------12-----10--12--10-10-10-12-12-12-10-10-10-12-12-
F-----10-------12--10--12--10-10-10-12-12-12-10-10-10-12-12-
C--------10-------------------------------------------------
G-----------------------------------------------------------
C-----------------------------------------------------------


Outro (Mandolin arranged for Guitar 2)
d-----------14---------------------14-----------------------
A-----15-----------15--------15-----------15--------15------
F-----------------------------------------------------------
C--12----12-----12----12------------------------------------
G-------------------------15----15-----15----15--14----14---
C-----------------------------------------------------------

(continued)
d--14-----------------------------------17----17----17------
A---------15------------15--15------------------------------
F-----------------------------------------------------------
C-----------------------------------------------------------
G------14----14--12--12--------------17----17----17-----17--
C------------------------------15^--------------------------

(continued)
d--17----17----17------17----17----17-----17----17----17----
A-----------------------------------------------------------
F-----------------------------------------------------------
C-----------------------------------------------------------
G-----17----17------17----17----17-----17----17----17-------
C-----------------------------------------------------------

(continued)
d--13h14-----------------13h14----------------13h14---------
A--------15----15-12-----------15----15-12----------15------
F-----------14-------14-----------14-------14----------14---
C-----------------------------------------------------------
G-----------------------------------------------------------
C-----------------------------------------------------------

(continued)
d------------------------------------------------------14---
A----------------------12-10--------------12-10-------------
F--15-12-----11-12-14--------10--11-12-14-------10----------
C--------14-------------------------------------------------
G-----------------------------------------------------------
C--------------------------------------------------12-------


Intro

Verse 1

Chorus 1A, 1B

Verse 1

Chorus 1A, 1B

Riff

Verse 2

Chorus 2A, 2B

Riff

Verse 2

Chorus 2A, 2B

Bridge 1 to Bridge 2, Solo

Chorus 2A, 2B

Verse 1

Verse 1, Outro (fade-out)

Almost there ...

Sign in to get your own page with links to favourite songs and more. You are just one click away...

Login with Facebook Login with Google