Log in

One click and you are in

Login with Facebook Login with Google

Why sign up and log in

Guitar Tabs Explorer
Mötley Crüe tabs for Kickstart my heart

Guitar tabs

Tuning: One step down

Album: Dr. Feelgood
Submitted by: Leelo

Intro
d----------------------------------------------------------
A----------------------------------------------------------
F----------------------------------------------------------
C--/7-/----------------------------------------------------
G---------/7-/---------------------------------------------
D-----------------/5--/---12v------------------------------


Riff 1                                 end on
d------------------------------------|---------------------
A------------------------------------|---------------------
F------------------------------------|---------------------
C--5-5-6-7--7--x-x--7--x-x--7--x-x---|--5-6----------------
G--5-5-6-7--7--x-x--7--x-x--7--x-x---|--5-6----------------
D--3-3-4-5--5--x-x--5--x-x--5--x-x---|--3-4----------------


Chorus
d-----------------------------------3-2-------------3-2----
A------------------------------3----3-3-------------3-3----
F------------------------------2----2-2-------------2-2----
C--7-------------5-------------0-0m-0-0-0m-0m-0m-0m-0-0----
G--7--3p0-4p0-0--5--3p0-4p0-0------------------------------
D--5-------------3-----------------------------------------

(continued)
d-----------------------------------3-2--------------------
A------------------------------3----3-3----3---------------
F------------------------------2----2-2----2---------------
C--7-------------5-------------0-0m-0-0-0m-0---------------
G--7--3p0-4p0-0--5--3p0-4p0-0-------------------------0-3--
D--5-------------3----------------------------0-3-4-5------

(continued)
d----------------------------------------------------------
A------------------------------3---------------------------
F------------------------------2---------------------------
C--7-------------5-------------0---------------------------
G--7--3p0-4p0-0--5--3p0-4p0-0------------------------------
D--5-------------3-----------------------------------------

Verse
d----------------------------------------------------------
A----------------------------------------------------------
F----------------------------------------------------------
C--5-6-7--7m-7m-7m-7m-7m-7m-7m-7m-7m-7m-7m-7m--5-6-7-------
G--5-6-7--7m-7m-7m-7m-7m-7m-7m-7m-7m-7m-7m-7m--5-6-7-------
D--3-4-5--5m-5m-5m-5m-5m-5m-5m-5m-5m-5m-5m-5m--3-4-5-------

(continued)
d-------------------------------------------------------3--
A--------------------------------------------------3----3--
F-------------------------------------------5------2----2--
C--7m-7m-7m-7m-7m-7m-7m-7m-7m-7m-7m-7m--7---5---5--0-0m-0--
G--7m-7m-7m-7m-7m-7m-7m-7m-7m-7m-7m-7m--7---3---5----------
D--5m-5m-5m-5m-5m-5m-5m-5m-5m-5m-5m-5m--5-------3----------

(continued)
d--2-------------3-2---------------------------------------
A--3-------------3-3---------------------------------------
F--2-------------2-2---------------------------------------
C--0-0m-0m-0m-0m-0-0---------------------------------------
G----------------------------------------------------------
D----------------------------------------------------------


Pre-Chorus
d---------8--\---------8--\--------------------------------
A---------8--\---------8--\--------------------------------
F---------5--\---------5--\--------------------------------
C--5-6-7--7--\--5-6-7--7--\--------------------------------
G--5-6-7--------5-6-7--------------------------------------
D--3-4-5--------3-4-5--------------------------------------

Post-Chorus
d----------------------------------------------------------
A----------------------------------------------------------
F----------------------------------------------------------
C--3-3m-3m-3m-3m-3m-3m-3m-3m-3m-3m-3m--3-3m-3m-3m-3m-3m-3m-
G--3-3m-3m-3m-3m-3m-3m-3m-3m-3m-3m-3m--3-3m-3m-3m-3m-3m-3m-
D--1-1m-1m-1m-1m-1m-1m-1m-1m-1m-1m-1m--1-1m-1m-1m-1m-1m-1m-

(continued)
d----------------------------------------------------------
A----------------------------------------------------------
F----------------------------------------------------------
C--3m-3m---------------------------------------------------
G--3m-3m----------0-3--------------------------------------
D--1m-1m--0-3-4-5------------------------------------------


Riff 2 (Guitar 2 played at the end of the verse)
d--5--7--5--8--5------17----19----20-----15--17v-----------
A--5--5--5--5--5---17----17----17----17--------------------
F----------------------------------------------------------
C----------------------------------------------------------
G----------------------------------------------------------
D----------------------------------------------------------

(continued)
d--/20---19--17--15----------------------------------------
A--------------------17v--\--------------------------------
F----------------------------------------------------------
C----------------------------------------------------------
G----------------------------------------------------------
D----------------------------------------------------------

Pre-Bridge
d----------------------------------------------------------
A----------------------------------------------------------
F----------------------------------------9-----------------
C--3-3m-3m-3m-3m-3m-3m-3m-3m-3m-3m-3m-3--9-----------------
G--3-3m-3m-3m-3m-3m-3m-3m-3m-3m-3m-3m-3--7-----------------
D--1-1m-1m-1m-1m-1m-1m-1m-1m-1m-1m-1m-1--0-----------------


Bridge 1 (clean)
d--0----0----2------0----0----3p2--2-----------------------
A--2----3----3------2----3----3----3-----------------------
F--2----0----2------2----0----2----2-----------------------
C--2----2----0------2----2----0----0-----------------------
G--0----------------0--------------------------------------
D----------------------------------------------------------


Bridge 2
d---------------0----0----2-----0----0----2~---------------
A---------------2----3----3-----2----3----3~---------------
F---------------2----0----2-----2----0----2~---------------
C---------------2----2----0-----2----2----0~---------------
G----------0-3--0---------------0--------------------------
D--0-3-4-5-------------------------------------------------

(continued)
d----------------------------------------------------------
A----------------------------------------------------------
F------------7---------------7-----------------------------
C--7----5----7-----7----5----7-----------------------------
G--7----5----5-----7----5----5-----------------------------
D--5----3----------5----3----------------------------------


Riff 3
d----------------------------------------------------------
A--8-/-----------------------------------------------------
F--------5------5-7-7--5----5------5-7-7--5-----5----5---5-
C----------7v------------7----7v------------7------7---7---
G----------------------------------------------------------
D----------------------------------------------------------

(continued)
d----------------------------------------------------------
A----------------------------------------------------------
F--5----5---5--5------5------5------5----------------------
C-----7---7------h7p5---h7p5---h7p5---h7p5-----------------
G----------------------------------------------------------
D----------------------------------------------------------


Solo
d----------------------------------------------------------
A--10-10-10-12-12-12-13-13-13-10-10-10-13-13-13-15-15-15---
F----------------------------------------------------------
C----------------------------------------------------------
G----------------------------------------------------------
D----------------------------------------------------------

(continued)
d----------------------------------------------------------
A--13-13-13-15-15-15-17-17-17-15-15-15-13-13-13-15-15-15---
F----------------------------------------------------------
C----------------------------------------------------------
G----------------------------------------------------------
D----------------------------------------------------------

(continued)
d----------------------------------------------------------
A--12-12-12--13--12--10------------------------------------
F-------------------------5---7---5---7----5--5------5-----
C-------------------------7---7---5---7---------7p5----h7--
G----------------------------------------------------------
D----------------------------------------------------------

(continued)
d----------------------------------------------------------
A----------------------------------------------------------
F--5------5------5------5----------------------------------
C----h7p5---h7p5---h7p5---h7p5-----------------------------
G----------------------------------------------------------
D----------------------------------------------------------


Riff 4
d--5-----7----------------------5-----7-------------5--7v--
A----------------------------------------------------------
F-------------5--5----5----5--------------------5-5--------
C------------------7----7----7------------7h8h9------------
G----------------------------------------------------------
D----------------------------------------------------------

(continued)
d--5-----7-----8v-------5-----7-----8v---------------------
A----------------------------------------------------------
F----------------------------------------------------------
C----------------------------------------------------------
G----------------------------------------------------------
D----------------------------------------------------------


Outro
d----------------------------------------------------------
A----------------------------------------------------------
F----------------------------------------------------------
C--5-6-7--5-6-7--5-6-7---7---9-9-9-9-9-9-9-9-9-9-9--10-10--
G--5-6-7--5-6-7--5-6-7---7---9-9-9-9-9-9-9-9-9-9-9--10-10--
D--3-4-5--3-4-5--3-4-5---5---7-7-7-7-7-7-7-7-7-7-7---8--8--

(continued)
d----------------------------------------------------------
A----------------------------------------------------------
F----------------------------------------------------------
C--10-10-10-10-10-10-10-10-10--12-12-12-12-12-12-12-12-12--
G--10-10-10-10-10-10-10-10-10--12-12-12-12-12-12-12-12-12--
D---8--8--8--8--8--8--8--8--8--10-10-10-10-10-10-10-10-10--

(continued)
d----------------------------------------------------------
A----------------------------------------------------------
F----------------------------------------------------------
C------------------7-\-------------------------------------
G--3--3------3^----7-\-------------------------------------
D---------5--------5-\-------------------------------------


Intro

Riff 1

Chorus

Verse

Pre-Chorus

Chorus
Post-Chorus

Riff 1

Verse, Riff 2

Pre-Chorus

Chorus
Pre-Bridge

Bridge 1

Bridge 2

Chorus

Chorus, Riff 3

Chorus, Solo

Chorus, Riff 4

Outro

Other versions of Kickstart My Heart

Kickstart my heartChords
Kickstart my heart (Ver. 2)Chords
Kickstart my heart - soloTabs

Almost there ...

Sign in to get your own page with links to favourite songs and more. You are just one click away...

Login with Facebook Login with Google