Log in

One click and you are in

Login with Facebook Login with Google

Why sign up and log in

Guitar Tabs Explorer
Mother Mother bass tabs for Hayloft

Bass tabs

Tuning: Standard (E A D G)


Intro:

come in at 0:10
G|----------------|----------------|----------------|----------------| |
D|----------------|----------------|----------------|----------------| |
A|----------------|----------------|----------------|----------------| | 2x
E|-5---5----------|-8---8----------|-1---1----------|-4---4----------| |

G|----------------|-----5-------5--|----------------|----------------|
D|-----7-------7--|----------------|-----3-------3--|-----6-------6--|
A|----------------|-3-------3------|----------------|----------------|
E|-5-------5------|----------------|-1-------1------|-4-------4------|

G|----------------|-----5-------3--|----------------|----------------|
D|-----7-------7--|----------------|-----3----------|----------------|
A|----------------|-3-------3------|----------------|----------------|
E|-5-------5------|----------------|-1-------1---5-4|-4--------------|


Verse 1:

G|----------------|----------------|----------------|----------------| |
D|----------------|----------------|----------------|----------------| |
A|----------------|----------------|----------------|----------------| | 8x
E|-5---5----------|-8---8----------|-1---1----------|-4---4----------| |


Pre-Chorus:

G|----------------|----------------|----------------|----------------|
D|-------7-----7--|-------7---7-10-|-------7---7----|-------7-6-7~---|
A|---------0-7----|---------0------|---------8---8--|----------------|
E|----------------|----------------|----------------|----------------|

G|----------------|----------------|----------------|----------------|
D|-7-6-7-6-7--5-7-|-7-6-7-6----7-10|-7---7---7---7--|-7-6-7-6-7-6-7-6|
A|-----------0----|--------8-11----|---0---0---0---0|----------------|
E|----------------|----------------|----------------|----------------|


Chorus:

G|----------------|-----5-------5--|----------------|----------------| |
D|-----7-------7--|----------------|-----3-------3--|-----6-------6--| |
A|----------------|-3-------3------|----------------|----------------| | 2x
E|-5-------5------|----------------|-1-------1------|-4-------4------| |

G|----------------|----------------|----------------|----------------|
D|----------------|----------------|----------------|----------------|
A|----------------|----------------|----------------|----------------|
E|-5---5---5---5--|-8---8---8---8--|-1---1---1---1--|-4---4---4---4--|

G|----------------|-----5-------5--|----------------|----------------|
D|-----7-------7--|----------------|-----3----------|----------------|
A|----------------|-3-------3------|----------------|----------------|
E|-5-------5------|----------------|-1-------1---5-4|-4--------------|


Verse 2:

G|----------------|----------------|----------------|----------------| |
D|----------------|----------------|----------------|----------------| |
A|----------------|----------------|----------------|----------------| | 2x
E|-5---5----------|-8---8----------|-1---1----------|-4---4----------| |

come back in at 2:19 after to blow their hayloft dead heads straight off

G|----------------|----------------|----------------|----------------|
D|-------7-----7--|-------7---7-10-|-------7---7----|-------7-6-7~---|
A|---------0-7----|---------0------|---------8---8--|----------------|
E|----------------|----------------|----------------|----------------|

G|----------------|----------------|----------------|----------------|
D|-7-6-7-6-7--5-7-|-7-6-7-6----7-10|-7---7---7---7--|-7-6-7-6-7-6-7-6|
A|-----------0----|--------8-11----|---0---0---0---0|----------------|
E|----------------|----------------|----------------|----------------|

G|----------------|----------------|----------------|----------------| |
D|----------------|----------------|----------------|----------------| |
A|----------------|----------------|----------------|----------------| | 2x
E|-5---5---5---5--|-8---8---8---8--|-1---1---1---1--|-4---4---4---4--| |


Chorus:

G|----------------|-----5-------5--|----------------|----------------| |
D|-----7-------7--|----------------|-----3-------3--|-----6-------6--| |
A|----------------|-3-------3------|----------------|----------------| | 2x
E|-5-------5------|----------------|-1-------1------|-4-------4------| |

G|----------------|----------------|----------------|----------------|
D|----------------|----------------|----------------|----------------|
A|----------------|----------------|----------------|----------------|
E|-5---5---5---5--|-8---8---8---8--|-1---1---1---1--|-4---4---4---4--|

G|----------------|-----5-------5--|----------------|----------------|
D|-----7-------7--|----------------|-----3----------|----------------|
A|----------------|-3-------3------|----------------|----------------|
E|-5-------5------|----------------|-1-------1---5-4|-4--------------|

G|----------------|----------------|----------------|----------------|
D|----------------|----------------|----------------|----------------|
A|----------------|----------------|----------------|----------------|
E|-4-4-4----------|----------------|----------------|----------------|

G|----------------|----------------|----------------|----------------|
D|----------------|----------------|----------------|----------------|
A|----------------|----------------|----------------|----------------|
E|----------------|----------------|----------------|----------------|


************************************

| ~ Vibrato

************************************

Almost there ...

Sign in to get your own page with links to favourite songs and more. You are just one click away...

Login with Facebook Login with Google