Log in

One click and you are in

Login with Facebook Login with Google

Why sign up and log in

Guitar Tabs Explorer
Mother Love Bone tabs for Mama says right

Guitar tabs with lyrics

OKAY I KNOW IT'S NOT FINISHED YET BUT THE LYRICS ARE THERE AND THE FIRT PART
OF THE SONG IS!! SO I POSTED IT ANYWAY -- THE FULL VERSION WILL BE HERE SONE!
ANY QUESTIONS (maybe for a sample of this wonderfull song (WAV)) mail me
9250128@bn.fnt.hvu.nl

MAMA SAYS RIGHT - Andrew & Kevin Wood (Demo) (EARLY MOTHER LOVE BONE)
---------------------------------------------
                            _______________________
tabbed out by BAS VAN PELT : 9250128@bn.fnt.hvu.nl
                            ~~~~~~~~~~~~~~~~~~~~~~~
Okay in my opinion this is one of the best songs Andy wrote
It was recorded at Andrew's home Winter 1984

I took it from the CD : IN MEMORY OF ANDREW WOOD - WORDS AND MUSIC
                                                   COMMUNICATION#1
wich also features temple of the dog demos (Recorded in 1989),Malfunkshun
demos (recorden winter 1984) and Mother love bone demos (1988)

- The first thing you gotta do is tune your guitar down half a step


note : listen to the cd for the exact timing!



     A chord diagramG+G                              Emin
e:-------3----3--3--3--3----|--------0--|-------------------|
B:---3---3----3--3--3--3----|--------0--|-------------------|
G:---0---0----0--0--0--0----|-0------0--|-------------------|
D:---0---0----0--0--0--0----|-2---------|-------------0-----|
A:---2----------------------|-2---------|-2--------2--------|
E:---3----------------------|-0---------|----2--3--------3--|

                          Emin                A chord diagramG+G
e:---3/5---------------|-----0-------------|--3---5\3-------------------------|
B:---3/5--3/5----------|-----0-------------|--3---5\3--5\3--------------------|
G:--------2/4--0h2-2-2-|--0--0--0--0--0--0-|--0--------4\2--------------------|
D:-------------0h2-2-2-|--2-----2--2--2--2-|--0------------------------0------|
A:-----------------0-0-|--2-----2--2--2--2-|--2-------------2--------2--------|
E:---------------------|--0-----0--0--0--0-|--3----------------2--3------0----|
                                                            Uh uh Ah ah ahaa
  Emin
e:------|--------------------|--------------------------------------------------------
B:--0---|--------------------|--------------------------------------------------------
G:--0---|--------------------|--------------------------------------------------------
D:--2---|--------------0-----|--------------------------------------------------------
A:--2---|--2--------2--------|--------------------------------------------------------
E:------|-----2--3--------3--|--------------------------------------------------------
             Bababuba................................................................

e:----------------------------------------------------------------------------
B:----------------------------------------------------------------------------
G:----------------------------------------------------------------------------
D:----------------------------------------------------------------------------
A:----------------------------------------------------------------------------
E:----------------------------------------------------------------------------



the end

Almost there ...

Sign in to get your own page with links to favourite songs and more. You are just one click away...

Login with Facebook Login with Google