Log in

One click and you are in

Login with Facebook Login with Google

Why sign up and log in

Guitar Tabs Explorer
Mos Def bass tabs for Mathematics

Bass tabs

Mathematics
by Mos Def
from the album Black On Both Sides (1999)

Great tune here; the riff will stay in your head for days upon days, guaranteed.
Main Riff
|----------------------------------------------|
|----------------------------------------------|
|----------9-9------7--------------------------|  x3
|------9-9-------------------0----5------------|

|----------------------------------------------|
|----------------------------------------------|
|----------9-9------7-----------------4--------|  x1
|------9-9-------------------0--0--0----5------|



Chorus
|----------------------------------------------| |----------------------------------------------|
|----------------------------------------------| |----------------------------------------------|
|----------9-9------7--------------------------| |----------9-9---------7--------------4--------|
|------9-9-------------7-----0----5------------| |------9-9----------7-----7--0--0--0----5------|

|----------------------------------------------| |----------------------------------------------|
|----------------------------------------------| |----------------------------------------------|
|----------9-9------7--------------------------| |----------9-9---------7-----------------------|
|------9-9-------------------0----5------------| |------9-9----------7-----7--0----5------------|



Song Structure:

Main Riff 6x

Chorus 1x

Main Riff 4x

Almost there ...

Sign in to get your own page with links to favourite songs and more. You are just one click away...

Login with Facebook Login with Google