Log in

One click and you are in

Login with Facebook Login with Google

Why sign up and log in

Guitar Tabs Explorer
Mortimer Nova tabs for The plantation

Guitar tabs with lyrics

capo 3


-------------------------
-------------------------
-------------------------
-5-----5-----3-----3-----
---3-----3-----3-----3---
-----5-----5-----3-----3-
----------11-------------6-----------3-------3---------
----11-------11------3-----------3-----3-------4-------
-13----13-------13-3---3---3---8---8-----8-3-----3-----
-3-----------------5---------5-6-----------5-------5---
-3-----------------6-----------8-----------6---------6-
-------------------------------------------------------


---------   -6-5-5-5-
-4---9---   -8-8-----
-----7---   -7-7-7---
-5-5---5-   ---------
-------5-   ---------
---6-----   ---------


i can tell you're angry
but thats just no excuse
and that won't stop the hand
that has to teach again
stop your violent eyes
because no one can hear
and i don't want to shout
so shut your mouth dear
i didnt mean to hit you
but you didn't learn before
and you hurt the ones you love
and the others even more

the elements can be so cruel
the embrace was delivered late
thieves will fall into the sun
when you're content with nervousness
waiting for an epiphany
and pushing the extra mile
hide your teeth from your smile

you hurt the ones you love
and the others even more

don't walk out that door
i won't bring you back home

Almost there ...

Sign in to get your own page with links to favourite songs and more. You are just one click away...

Login with Facebook Login with Google