Log in

One click and you are in

Login with Facebook Login with Google

Why sign up and log in

Guitar Tabs Explorer
Mortimer Nova tabs for Suffering the white hand

Suffering The White Hand tab by Mortimer Nova

Mortimer Nova tabs for Suffering the white hand

Guitar tabs

capo 2

----------------------------
----------------------------
----------------------------
-11-11-11-11-11-11-9-9-9--4-
-9--11-12----9--12-7-9-11-4-
----------10-10-10----------
----------------------------
----------------------------
----------------------------
-11----------------9------7-
-12-------12-------11-----9-
----------10----------------


----------------   ----------5-4---   ----------------------------
----------------   ---9-10---------   ----------------------------
-9--7-6---------   -7-7-7----------   ----------------------------
-11-9-7-11-9--7-   -9-9-9--4-4-4-4-   ----------------------------
--------12-11-9-   --------4-4-4-4-   ----------------------------
----------------   ----------------   ----------------------------


wake up the day and
feel on the ground of
teeth from the fire lily
this antequated
quintessential
observe the mercy killing
choking the student
chewing my tongue and
become the perfect killer
conviction lost so
you'll read about it
in the paper tomorrow

unclear solutions
unrecognized
the total meaning
lost inbetween

where is my guarantee
that you'll be with me
in my arms tomorrow
i'm not the bloodroot
you're not an anvil
in the criminal mind
this operation
drives substitution
breaking achilles heal
one day you'll learn that
you can't change the
things you hate the most

Almost there ...

Sign in to get your own page with links to favourite songs and more. You are just one click away...

Login with Facebook Login with Google