Log in

One click and you are in

Login with Facebook Login with Google

Why sign up and log in

Guitar Tabs Explorer
Mortimer Nova tabs for Parachute

Guitar tabs with lyrics

i can smell you on my bed, on my pillow, in the bedroom, we once shared
i turn my face to hide my head, from the background and the vision of you
there, woah oh oh

what's the point of breathing if you can't enjoy what you should be living
but youre living and you're living and you're living

(humming)
i pull the covers over tight, and start hiding, from the feelings, i once had
if i could just suffocate, and be lifted to existance without pain, woah
oh oh

what's the point of breathing if you can't enjoy what you should be living
but youre living and you're living and you're living

these cuts are from you
from my hand
that you forced

and these cuts are from you
from my hand that you forced

parachute
let me go


drop d both e
capo 4
-7-6---------6---   ---------0---------------0-------   -----------
------------
-5-5-------5-----   -------0---0-----------0---0-----   -----------
------------
-6---------6-----   -----6-------6-------6-------6---   ------9--8-
-11-11-9--8-
---6-----6-6-6---   ---8-----------8---8-----------8-   -9-11-11---
------------
-----6-6-7---6-6-   -7-------------------------------   -9-9-----9-
-14-12-11-9-
-----6-----------   -----------------0---------------   -9-9-------
------------

Almost there ...

Sign in to get your own page with links to favourite songs and more. You are just one click away...

Login with Facebook Login with Google