Log in

One click and you are in

Login with Facebook Login with Google

Why sign up and log in

Guitar Tabs Explorer
Mortimer Nova tabs for Last call

Guitar tabs with lyrics

DROP A chord diagramD MajorD ON BOTH E's

NOTES:
parts 1 and 2 are plucking
overlay 3b on top of 3a's bar at 4
part 3a is funk strumming
start 4a and go to 4b, using up down strumming rocking on the 2nd string

---4-----------------------------------
---4---------------------------
--3-3------2---------------------------
--3-3---------3-----0-2-3-2-0--
-4---4-0--3-3------------------------4-
-4---4-0-2-2-4-4-0-3---------3-
---------4---4-2-2-4-2-----------------
-------------------------------
----------------------4-3-2-2-2--------
-------------------------------
-------------------------------0-2-3-4-
-------------------------------
1                                               2

                                           BAR ON -
-4-----   -15-     -4-4-4-4-   ---------   -8---------------
-9-8-------
-3-----   -14-     -3-2-3-2-   -3-2-3-2-   -7-7-----7-7---9-
-----------
-4-----   -15-     -4-4-----   -4-4-3-3-   -8-8-8-----8-8---
-----------
---4-5-   ----     ---------   -5-5-4-4-   ---9-9-9-8-9-9---
-----------
---4-5-   ----     ---------   ---------   -----8-8-9---8-8-
-8-8-8-8-8-
---4-5-   ----     ---------   ---------   -------8-------8-
-------8-9-
3a        3b       4a          4b          5


save a seat at the table and bring your own spoon
cuz my good intentions never followed through
you'll miss the exit if you don't use your hands
it's such a short walk when i can fall off the land
if you're just gonna try why dont don't don't don't you just give up
cuz you'll never live up and you won't shut up
you can't taste the world if your all tongues shriveled up
you can't taste the world if your all tongues shriveled up

misin, misinterpretation
misin, misinterpretation, yeah
misin, misinterpretation
misin, misinterpretation, yeah, oh yeah

so roll up your sleaves and gnaw at your teeth
and shoot back the juice that brings you relief
roll back your eyes and fall off your feet
make your disguise and run your retreat
if you're just gonna try why dont don't don't don't you just give up
cuz you'll never live up and you won't shut up
you can't taste the world if your all tongues shriveled up
you can't taste the world if your all tongues shriveled up

misin, misinterpretation
misin, misinterpretation, yeah
misin, misinterpretation
misin, misinterpretation, yeah

bring back the face, bring back the race, bring back the rain, the lane
you never go
i can't, again, i know, you know, i try, to be, a lie, uh woah oh

monotonany, is that such a problem
hesitation, you think far too much
hysterical, only leads you to captivation

Almost there ...

Sign in to get your own page with links to favourite songs and more. You are just one click away...

Login with Facebook Login with Google