Afterthought Of Grievance by Mortimer Nova

Afterthought Of Grievance tab by Mortimer Nova

Guitar tabs

capo 4
drop d both e

part 2
our hands so tight
you crying and reaching for air
your legs spread wide
the same way that had put us there

part 3

part 2
our bodies intertwine
is that what you call love
to feel alive
sometimes isn't enough

part 3
slide up to index on all 11

part 4
where is my isaac, i had laid before me
reached out in the dark, blocking the sun
calloused and manic, unplanned catastrophe
her lifes the epitamy of imperfection

part 3

part 2
we spend this time
looking so hard to find hope
but we should
focus on looking for help

part 3

part 4
where is my isaac, i had laid before me
reached out in the dark, blocking the sun
calloused and manic, unplanned catastrophe
her lifes the epitamy of imperfection

part 1
bless your filthy wicked heart
i'm an eel fit for a whore

part 5 x2

part 6


^ - vibrate the index finger
part 1 - finger picked
part 2 - strum
part 3 - strum
part 4 - strum and picked (2 guitars)
part 5 - strum
part 6 - strum >end

                     ^
---9---9-  -------------------  -x-x-x---  -----------  -------
--------->--9-
-8-8-8-8-  ---7-5-5---7-7-7---  -x-x-x---  -11-11-9-9-  -------
--------->--7-
-9-9-9-9-  -----6-------------  -x-x-x---  -10-9--8---  -11----
--------->----
-----7-7-  -7-7-7-7-7-7-7-7---  ---------  -11-11-9-9-  -9--9--
-9------->----
-7-7-----  -6-6-----6-6-----7-  -----7-6-  -----------  -11-11-
-9-9-7-7->6-6-
---------  -------------7-6---  -7-6-----  -----------  ----9--
-9-8-7-6->6-6-
part 1   part 2        part 3   part 4    part 5  part
6  >end

Find guitar tabs and chords

A B C D E F G H I J K L M N O P Q R S T U V W X Y Z #