GuitarTabsExplorer icon
GuitarTabsExplorer icon

Log in

Songbook

  • Log in to add and see bookmarks

Last visited songs

  • No songs visited yet...
Runaway Train by Steve Morse

Runaway Train bass tab by Steve Morse

Bass tabs

Transcribed by: Ken Barker


Runaway Train  By: Steve Morse
===============================

  e Q  e Q   e e+q  s s s s s s s s  e Q  e Q   e Q  e Q
+-------+---18\X-+-------+----------------------+-----+---18\X-+-----+-----+
|2:---R-|-R-19---|---R---|-10H11----------------|---R-|-R-19---|---R-|---R-|
|4:-0---|--------|-0-----|-------0H11H12-0H12P0-|-0---|--------|-0---|-----|
+-------+--------+-------+----------------------+-----+--------+-----+-3---+
  T    o   T    o  T    T    T    o   T   T


 e e e e  e e e e  e e e e  e s s e e  e e e e  e e e e
+---19---19-+---19---19-+---19---19-+---19-19---19-+---19---19-+---19---19-+
|---19---19-|---19---19-|---19---19-|---19-19---19-|---19---19-|---19---19-|
|-5---------|-5---------|-5---------|-5------------|-5---------|-5---------|
+------5----+------5----+------5----+---------5----+------5----+------5----+
 L R L R  L R L R  L R L R  L R R L R  L R L R  L R L R
 e e e e  e e e e  e e e e  e e e e  e e e e  e e e e
+---19---19-+---19---19-+---19---19-+---19---19-+---19---19-+---19---19-+
|---19---19-|---19---19-|---19---19-|---19---19-|---17---17-|---17---17-|
|-5---------|-5-------4-|-5---------|-5---------|------5--2-|------5----|
+------5----+----5-7----+------5----+------5----+-3---------+-3---------+
 L R L R  L B L B  L R L R  L R L R  L R L B  L R L R


 e e e e  e e e e  e e e e  e e e e  e e e e  e e e e
+---22---22-+---21---21-+---19---19-+---19---19-+---19---19-+---19---19-+
|---22---22-|---19---19-|---19---19-|---19---19-|---19---19-|---19---19-|
|-8---------|------7----|-5---------|-5-------4-|-5---------|-5---------|
+------8----+-5---------+------5----+----5-7----+------5----+------5----+
 L R L R  L R L R  L R L R  L B L B  L R L R  L R L R


 e e e e  e e e e  e e e e  e e e e  e e e e  e e e e
+---19---19-+---19---19-+---22---22-+---21---21-+---19---19-+---19---19-+
|---17---17-|---17---17-|---22---22-|---19---19-|---19---19-|---19---19-|
|------5----|------5----|-8---------|------7----|-5---------|-5---------|
+-3---------+-3---------+------8----+-5---------+------5----+------5----+
 L R L R  L R L R  L R L R  L R L R  L R L R  L R L R


 e e e e  e e e e  e e e e  e e e e  e e e e  e e e e
+---22---22-+---22----22-+---19---19-+---19---19-+---22---22-+---22----22-+
|---20---20-|---20----20-|---19---19-|---19---19-|---20---20-|---20----20-|
|------8----|-8----10----|-5---------|-5---------|------8----|-8----10----|
+-6---------+------------+------5----+------5----+-6---------+------------+
 L R L R  L R L R  L R L R  L R L R  L R L R  L R L R
 e s s e e  e e e e  e e e e  e e e e  e e e e  e e e e
+---21-21---21-+---21---21-+---19---19-+---19---19-+---19---19-+---19---19-+
|---19-19---19-|---19---19-|---19---19-|---19---19-|---17---17-|---17---17-|
|---------7----|---------4-|-5---------|-5---------|------5----|------5----|
+-5------------+-5--5-7----+------5----+------5----+-3---------+-3---------+
 L R R L R  L B L B  L R L R  L R L R  L R L R  L R L R


 e e e e  e e e e  e e e e  e e e e  e e e e  e e e e
+---22---22-+---17---17-+---19---19-+---19---19-+---21---21-+---17---19-+
|---20---20-|---17---17-|---19---19-|---19---19-|---19---19-|---17---17-|
|------8----|-3---------|-5---------|-5---------|------7----|-3---------|
+-6---------+------3----+------5----+------5----+-5---------+------3----+
 L R L R  L R L R  L R L R  L R L R  L R L R  L R L R


 e e e e  s s e e e  e e e e  s s s s e e  e e e e  s s s s s s s s
+---19---19-+-----19-18---+---------+-------5-----+---------+-------7-------7-+
|---19---19-|-----19-19---|---3-----|-------------|---5-----|-----------------|
|-5---------|-------------|-----0-1-|-2H3-3---1-0-|-----2-3-|-4H5-5---4H5-5---|
+------5----+-5-5-----5-3-+-1-------+-------------+-3-------+-----------------+
 L R L R  L T R B L  T o T T  T  T o T T  T o T T  T  T o T  T o


 e e e e  e e e e  e e e e  s s e e e  e e e e  s s s s e e
+---21---21-+---17---19-+---19---19-+-----19-18---+---------+-------5-----+
|---19---19-|---17---17-|---19---19-|-----19-19---|---3-----|-------------|
|------7----|-3---------|-5---------|-------------|-----0-1-|-2H3-3---1-0-|
+-5---------+------3----+------5----+-5-5-----5-3-+-1-------+-------------+
 L R L R  L R L R  L R L R  L T R B L  T o T T  T  T o T T


 e e e e  s s s s e e  e e+q  h  e Q  e e e e  h  h  e Q  e e q
+---------+-------6-----+-------+---+-----+---------+---+---+-----+-------+
|---5-----|-------------|---R---|-R-|---R-|-R-------|-R-|-R-|---R-|-R-----|
|-----2-3-|-3H4-4---2-0-|-5-----|---|-----|-------5-|---|---|-----|-------|
+-3-------+-------------+-------+---+-6---+---3-5---+---+---+-6---+---3-5-+
 T o T T  T  T o T T  T      T    T T T      T    T T


 e e e e  e e e e  e e e e  e e e e  e e e e  e e e e
+---22---22-+---22----22-+---19---19-+---19---19-+---22---22-+---22----22-+
|---20---20-|---20----20-|---19---19-|---19---19-|---20---20-|---20----20-|
|------8----|-8----10----|-5---------|-5---------|------8----|-8----10----|
+-6---------+------------+------5----+------5----+-6---------+------------+
 L R L R  L R L R  L R L R  L R L R  L R L R  L R L R


 e e e e  e e e e  e e e e  e e e e  e e e e  e e e e
+---21---21-+---21---21-+---19---19-+---19---19-+---19---19-+---19---19-+
|---19---19-|---19---19-|---19---19-|---19---19-|---17---17-|---17---17-|
|------7----|---------4-|-5---------|-5---------|------5----|------5----|
+-5---------+-5--5-7----+------5----+------5----+-3---------+-3---------+
 L R L R  L B L B  L R L R  L R L R  L R L R  L R L R


 e e e e  e e e e  e e e e  e e e e  e e e e  e e e e
+---22---22-+---21---21-+---19---19-+---19---19-+---19---19-+---19---19-+
|---22---22-|---19---19-|---19---19-|---19---19-|---19---19-|---19---19-|
|-8---------|------7----|-5---------|-5-------4-|-5---------|-5---------|
+------8----+-5---------+------5----+----5-7----+------5----+------5----+
 L R L R  L R L R  L R L R  L B L B  L R L R  L R L R


 e e e e  e e e e  e e e e  e e e e  e e e e  e e e e
+---19---19-+---19---19-+---22---22-+---17---17-+---19---19-+---19---19-+
|---17---17-|---17---17-|---20---20-|---17---17-|---19---19-|---19---19-|
|------5----|------5----|------8----|-3---------|-5---------|-5---------|
+-3---------+-3---------+-6---------+------3----+------5----+------5----+
 L R L R  L R L R  L R L R  L R L R  L R L R  L R L R


  s s E E  s s q e  s s E E  s s s s+e e  s s E E  s s q e
+------9-11-+-----12---+------14-16-+------18--------+-----9-11-+-----12---+
|*---7------|---9------|---14-------|---14----14-----|---7------|---9------|
|*-0--------|-0------0-|-0----------|-0------------0-|-0--------|-0------0-|
+-----------+----------+------------+----------------+----------+----------+
  T.L.L..R...T.L..R.T...T..L..L..R...T..L..R..L...T...T.L.L..R...T.L..R.T..


 s s E E  s s s s+e e  s s E E  s s q e  s s E E  s s Q
+------14-16-+------18--------+------16-18-+------19---+------16-18-+------14-+
|---14-------|---14----14-----|---14-------|---16------|---14-------|---14----|
|-0----------|-0--------------|------------|-----------|------------|---------|
+------------+--------------0-+-0----------+-0-------0-+-0----------+-0-------+
 .T..L..L..R...T..L..R..L...T...T..L..L..R...T..L..R.T...T..L..L..R...T..L..L..


 s s E E  s s q e  s s E E  s s Q 3 s s E E  s s q e
+------16-18-+------19---+------16-18-+------14--+-----9-11-+-----12---+
|---14-------|---16------|---14-------|---14----*|---7------|---9------|
|------------|-----------|------------|---------*|-0--------|-0------0-|
+-0----------+-0-------0-+-0----------+-0--------+----------+----------+
 .T..L..L..R...T..L..R.T...T..L..L..R...T..L..L.  T.L.L..R...T.L..R.T..


 s s E E  s s q e  s s E E  s s q e  s s E E  s s q e
+------14-16-+------18---+-----9-11-+-----12---+------14-16-+------18---+
|---14-------|---14------|---7------|---9------|---14-------|---14------|
|-0----------|-0-------0-|-0--------|-0------0-|-0----------|-0---------|
+------------+-----------+----------+----------+------------+---------0-+
 .T..L..L..R...T..L..R.T...T.L.L..R...T.L..R.T...T..L..L..R...T..L..R.T..


 s s E E  s s q e  s s E E  s s Q  s s E E  s s Q
+------16-18-+------19---+------16-18-+------14-+------16-18-+------19-+
|---14-------|---16------|---14-------|---14----|---14-------|---16----|
|------------|-----------|------------|---------|------------|---------|
+-0----------+-0-------0-+-0----------+-0-------+-0----------+-0-------+
 .T..L..L..R...T..L..R.T...T..L..L..R...T..L..L...T..L..L..R...T..L..R.


  s s s s s s s s  s s s s s s s s  s s s s s s s s
+----------------------13-+-14-12-13-15-13-14-16-14-+-15-17-15-16-19-18-17-16-+
|-17-16-15-14-15-16-17----|-------------------------|-------------------------|
|-------------------------|-------------------------|-------------------------|
+-------------------------+-------------------------+-------------------------+


  s s s s s s s s  e e e e  e e e e  e e e e  s s e e e
+-------------------------+----21---21-+---17---19-+---19---19-+-----19-18---+
|-17-16-15-14-------------|----19---19-|---17---17-|---19---19-|-----19-19---|
|-------------17-16-15-14-|-P0----7----|-3---------|-5---------|-------------|
+-------------------------+------------+------3----+------5----+-5-5-----5-3-+
                R L R  L R L R  L R L R  L T R B L


 e e e e  s s s s e e  e e e e  s s s s s s s s  e e e e  e e e e
+---------+-------5-----+---------+-------7-------7-+---21---21-+---17---19-+
|---3-----|-------------|---5-----|-----------------|---19---19-|---17---17-|
|-----0-1-|-2H3-3---1-0-|-----2-3-|-4H5-5---4H5-5---|------7----|-3---------|
+-1-------+-------------+-3-------+-----------------+-5---------+------3----+
 T o T T  T  T o T T  T o T T  T  T o T  T o  L R L R  L R L R


 e e e e  s s e e e  e e e e  s s s s e e  e e e e  s s s s e e
+---19---19-+-----19-18---+---------+-------5-----+---------+-------6-----+
|---19---19-|-----19-19---|---3-----|-------------|---5-----|-------------|
|-5---------|-------------|-----0-1-|-2H3-3---1-0-|-----2-3-|-3H4-4---2-0-|
+------5----+-5-5-----5-3-+-1-------+-------------+-3-------+-------------+
 L R L R  L T R B L  T o T T  T  T o T T  T o T T  T  T o T T


 e e e e  e e e e  e e e e  e e e e  e s s e e  e e e e  e s s e e
+---------+-------7-+---------+---------+-----------+-------7-+-----------+
|---7---5-|---5-----|---3---3-|---------|---7-----5-|---5-----|---3-----3-|
|-5---3---|-----5---|-1-------|---5---5-|-5---0H3---|-----5---|-1---------|
+---------+-3-------+-----1---+-3---5---+-----------+-3-------+-----0H1---+
 T o T o  T o T o  T o T o  T o T o  T o T  o  T o T o  T o T T o


 e e e e  e e e e  e e e e  e e e e  e e e e  e e e e
+---------+---22---22-+---22----22-+---19---19-+---19---19-+---22---22-+
|---------|---20---20-|---20----20-|---19---19-|---19---19-|---20---20-|
|---5---5-|------8----|-8----10----|-5---------|-5---------|------8----|
+-3---5---+-6---------+------------+------5----+------5----+-6---------+
 T o T o  L R L R  L R L R  L R L R  L R L R  L R L R


 e e e e  e e e e  s E e e  e e e e  e e e e  e e e e
+---22----22-+---21---21-+---------+---19---19-+---19---19-+---19---19-+
|---20----20-|---19---19-|---------|---19---19-|---19---19-|---17---17-|
|-8----10----|------7----|-------4-|-5---------|-5---------|------5----|
+------------+-5---------+-5-5-7---+------5----+------5----+-3---------+
 L R L R  L R L R  L T L L  L R L R  L R L R  L R L R


 e e e e  e e e e  e e e e  e e e e  e e e e  e e e e
+---19---19-+---22---22-+---21---21-+---19---19-+---19---19-+---19---19-+
|---17---17-|---22---22-|---19---19-|---19---19-|---19---19-|---19---19-|
|------5----|-8---------|------7----|-5---------|-5-------4-|-5---------|
+-3---------+------8----+-5---------+------5----+----5-7----+------5----+
 L R L R  L R L R  L R L R  L R L R  L B L B  L R L R


 e e e e  e e e e  e e e e  e e e e  e e e e  e Q  e Q
+---19---19-+---19---19-+---19---19-+---22---22-+---17---17-+-----+---11\X-+
|---19---19-|---17---17-|---17---17-|---20---20-|---17---17-|---R-|-R-12---|
|-5---------|------5----|------5----|------8----|-3---------|-5---|--------|
+------5----+-3---------+-3---------+-6---------+------3----+-----+--------+
 L R L R  L R L R  L R L R  L R L R  L R L R  T    o


 e e+q  e e+q  s s s s s s s s  s s s s s s s s  +e e q
+-------+-------+-10-9-7------------+-------------------+--------+-+
|---R---|---R---|--------8-7--------|-------------------|----5-R-|-|
|-5-----|-3-----|------------10-7-9-|-10--------7-------|--------|-|
+-------+-------+-------------------+----8-9-10---6-5-3-+--------+-+
 T    T


==========================================================================

  Created using the Bass Tab Creator
  by Mario D'Alessio (motcid!marble!dalessio)
  (modified by Ken Barker ([email protected]))

   * = MUTE    ^ = BEND     = HARMONIC
   H = HAMMER ON R = REST  / (\) = SLIDE UP (DOWN) TO FRET
   P = PULL OFF  ~ = TRILL /X (\X) = SLIDE UP (DOWN) TO NOWHERE

  Note Duration (above tab)
   (Upper case for dotted notes)
   w = Whole   h = Half      q = Quarter    e = Eighth
   s = Sixteenth t = Thirty-Second x = Sixty-Fourth g = Grace Note
   + = TIE    ^ = TRIPLET

  Note Attack Technique (below tab)
   T = RH Thumb Slap   o = RH Pop
   R = RH Tap       P = RH Pulloff (after RH Tap)
   L = LH Tap       B = Both Hands Tap
   X = LH Slap      A = Artificial Harmonic
  ... = Sustain (Let notes ring)

    #
  +----+          +----+
  |*--*+ = MEASURE    |4:--| = TIME
  |*--*+  REPEATS    |4:--|  SIGNATURES
  +----+  (#=Num Repeats) +----+

[ Privacy | About us ]

Welcome to the guitar community

Why join and log in?
- Get songbook with favourite songs
- Get custom made front page
- Submit chords and tabs
- Submit guitar-cover videos
- Get a lot of thumbs up for your work

Songbook

Last visited songs

Site
Home
Search
Community
Submit chords

Video

No video for this page. Check out how you can submit guitar-cover videos here

Search tabs and chords

Browse by artist

A B C D E F G H I J K L M N O P Q R S T U V W X Y Z #


Menu

Search

Video

Bookmark

Login