Log in

One click and you are in

Login with Facebook Login with Google

Why sign up and log in

Guitar Tabs Explorer
Morrissey bass tabs for November spawned a monster

November Spawned A Monster bass tab by Morrissey

Morrissey bass tabs for November spawned a monster

Bass tabs

Intro:
G |-------<24>----------|
D |-----------<24>------|
A |---------------------|
E |-3-------------------|

G |-------9/10\----------------------9/10\----------|
D |-------7/8\-----------------------7/8\-----------|
A |-------------------------------------------------|
E |-3\-----------8-8\----1-2-3-3\-----------8-8\----|

G |-----------9/10\----------------------9/10\-------------|
D |-----------7/8\-----------------------7/8\--------------|
A |--------------------------------------------------------|
E |-1---3\-----------8-8\----1-2-3-3\-----------8-8\-----6-|
Verse 1:
G |--------------------------------------9/10\-------------|
D |--------------------------------------7/8\--------------|
A |-6-6-6--6--6---6-5--5--5--5-----------------------------|
E |-------------6--------5-----1-2-3\-----------3-3\-----6-|

G |-----------------------------------------------------------------|
D |-----------------------------3-4-5-5-5--5--5---5-3-3-3--3--3---3-|
A |-6--6---6--6---6-5-5-5--5--5-----------5-----5---------3-----3---|
E |-------6-----6---------5-----------------------------------------|

G |--------------------------------|
D |--------------------------------|
A |-6-6-6--6--6---6-5-5-5--5--5-5--|
E |-------6-----6---------5--------|


Pre-Chorus:
G |-------------------------------------------|
D |-------7h8-------7h8-------7h8-------8p7---|
A |-6--6------6--6----------------------------|
E |---------------------6--6------6--6--------|

G |---------------------------------------|
D |-------7h8-------7h8-------7h8---------|
A |-6--6------6--6------------------------|
E |---------------------6--6------6--6----|

Chorus:
G |----------------------------------------------|
D |-------2h3------------------------------------|
A |------------------3-4-5--5----3-4-5--3--------|
E |-1--1-------1--1------------5-----------6--5--|

Post-Chorus:
G |--------------------------------------------------|
D |----------8------------8----------5-----------5---|
A |-6--8/10------6--8/10--------5/7---------5/7------|
E |------------6-------------8---------5-8-----------|

G |--------------------------------------------------------|
D |----------8------------8\-------------------------------|
A |-6--8/10------6--8/10-------5--5--5-5--5--5-5--3--------|
E |------------6-------------------------------------6--5--|


Bridge:
G |--------9/10\--------------------9/10\----------|
D |--------7/8\---------------------7/8\-----------|
A |------------------------------------------------|
E |-3-3-----------8-8\----1---3\-----------8-8\----|

G |-------------9/10\--------------------9/10\--------------|
D |-------------7/8\---------------------7/8\---------------|
A |---------------------------------------------------------|
E |-1-2-3-3\-----------8-8\----1-2-3\-----------8-8\----3-6-|


Verse 2:
G |----------------------------------------9/10\-------------|
D |----------------------------------------7/8\--------------|
A |-6-6-6--6--6---6-5-5-5---5--5\----------------------------|
E |-------6-----6----------5-------1-3\-----------3-3\-----6-|

G |---------------------------------------------------------|
D |---------------------------------------------------------|
A |-6-6-6--6--6---6-5-5-5--5--5/8-9-10-10-10---10--10----10-|
E |-------6-----6---------5------------------10-------10----|

G |--------------------------------------------------|
D |--------------------------------------------------|
A |-8-8-8--8--8---8-6-6-6--6--6---6-5-5-5--5--x5-5-x-|
E |-------8-----8---------6-----6---------5----------|

Post-Chorus 2:
G |-------------------------------------------------|
D |----------8------------8----------5-----------5--|
A |-6--8/10------6--8/10--------5/7---------5/7-----|
E |------------6-------------8---------5-8----------|

G |-----------------------------------------------------------|
D |----------8------------8\----------------------------------|
A |-6--8/10------6--8/10-------5--5--5-5--5--5-5--3-----------|
E |------------6-------------------------------------6--5--3--|

Interlude:
G |-----------------------------------------------|
D |-----------------------------------------------|
A |---------3h5----1----------------5----3h5-3----|
E |----1----------------1-3----1------------------|

G |-------------------------------------------------------------|
D |-------------------------------------------------------------|
A |-------------------------------5----1--------------5----3----|
E |-5----0----5----0----3----1--------------3----1--------------|

G |------------------------------|
D |------------------------------|
A |--------------------3---------|
E |-6----5----5-6----6------3----|


Bridge 2:
G |---------9/10\---------------------9/10\------------|
D |---------7/8\----------------------7/8\-------------|
A |----------------------------------------------------|
E |-3-3\-----------8-8\----1--3-3\-----------8-8-----6-|


Verse 3:
G |---------------------------------------9/10\-------------|
D |---------------------------------------7/8\--------------|
A |-6-6-6--6--6---6-5-5-5--5--5-----------------------------|
E |-------6-----6---------5-----1-2-3\-----------3-3\-----6-|

G |---------------------------------------------------------|
D |---------------------------------------------------------|
A |-6-6-6--6--6---6-5-5-5--5--5/8-9-10-10-10---10--10----10-|
E |-------6-----6---------5------------------10-------10----|

G |-------------------------------------------------|
D |-------------------------------------------------|
A |-8-8-8--8--8---8-6-6-6--6--6---6-5-5-5--5--5-5---|
E |-------8-----8---------6-----6---------5-------5-|


Pre-Chorus 2:
G |------------------------------------------|
D |-------7h8-------7h8-------7h8-------8p7--|
A |-6--6------6--6---------------------------|
E |---------------------6--6------6--6-------|

G |---------------------------------------|
D |-------7h8-------7h8-------8p7---------|
A |-6--6------6--6------------------------|
E |---------------------6--6------6--6----|

Post-Chorus 3/End:
G |------------------------------------------------|
D |----------8-----------8\----------5---------5---|
A |-6--8/10-----6--8/10--------5/7--------5/7------|
E |-------------------------8----------8---------5-|

G |--------------------------------------------------------|
D |----------8-----------8\--------------------------------|
A |-6--8/10-----6--8/10-------5--5--5-3h5--5--5-5--3-------|
E |---------------------------------------------------5----|

Almost there ...

Sign in to get your own page with links to favourite songs and more. You are just one click away...

Login with Facebook Login with Google