Log in

One click and you are in

Login with Facebook Login with Google

Why sign up and log in

Guitar Tabs Explorer
Morrissey tabs for Loop

Guitar tabs with lyrics

Standard Tuning


1st Verse

|-----------------------|
|-----------------------|
|-----------------------|
|----4--2---------------|>> Repeat 3 times
|---------2--4----------|
|--2------------5--2----|

|-----------------------|
|-----------------------|
|----4--2---------------|
|----------2--4---------|>> Repeat once then repeat the first part twice.
|--2-------------5--2---|
|-----------------------|

|-------------------------------------------|
|-------------------------------------------|
|----7---5---7---5---7---4---2---4---2---4--|
|-------------------------------------------|
|--5---5---5---5---5---2---2---2---2---2----|
|-------------------------------------------|

Repeat the process once more, then lead into the 1st Chorus.

1st Chorus

|-----------------------|
|-----------------------|
|-----------------------|
|----4--2---------------|>> Repeat Once
|---------2--4----------|
|--2------------5--2----|

|--2~----------2-0-----------------|
|--3~--0-2-3---------2--0-----0-2--|
|--4~---------------------2--------|
|--4~------------------------------|>> Repeat 3 more times
|--2~------------------------------|
|----------------------------------|

Here's The Rythym to that section.


|----2~----------5~----2~----|
|----3~----7~----5~----2~----|
|----4~----7~----6~----2~----|
|----4~----7~----7~----4~----|
|----2~----5~----7~----4~----|
|----------------5~----2~----|


After the 1st Chorus, the 1st Verse process is repeated, into the 2nd Chorus, played
like the first, then back to the 1st Verse process until the song fades out. pretty simple.


Lyrics:

I just wanna say
I haven't been away
I'm still right here
Where I always was
So one day, if you're bored
By all means call
Because you can do
But only if you want to

Almost there ...

Sign in to get your own page with links to favourite songs and more. You are just one click away...

Login with Facebook Login with Google