Log in

One click and you are in

Login with Facebook Login with Google

Why sign up and log in

Guitar Tabs Explorer
Morrissey tabs for Certain people i know

Guitar tabs

>Album: Your Arsenal
>Tuning: Standard
>
>e---------
>B---------
>G---------
>D---------
>A---------
>E---------
>
>I tried playing along with the cd using the previous tab, it's just
>not right.  My version is quite accurate.  The only thing the latter
>version had going for it was the chords that accompany the lead, other
>than that it is incorrect.  If you know the song this tab is self-
>explanitory.
>
>
>
>
>                I take the cue...
>-----2----2---2--------2---2---2--------2----2---2--------2---2---2---
>-------44---4---4-------44---4---4------2--44---4---4------44---4---4-
>----------------------------------------------------------------------
>----------------------------------------------------------------------
>-0h2---------------1h2--------------0h2---------------1h2-------------
>----------------------------------------------------------------------
>
>----9--9/7--6-7----7/9-7-6-4-6----9-9/7--6-7--7/9--9-9-9--------------
>----9--9/7--7-7----7/9-7-7-6-7----9-9/7--7-7--7/9--9-9-9--------------
>-----------------------------------------------------------------------
>-----------------------------------------------------------------------
>-----------------------------------------------------------------------
>-----------------------------------------------------------------------
>
>           And when I swing it, so it catches his eye...
>-----------------------5-----------------5-----------------------------
>--3-2h3--3-2h3----3-2h3--3-2-3--3-2h3-----2-3--3-4-6-7---5b-5b--2------
>---------------4--------------4----------------------------------------
>-----------------------------------------------------------------------
>-----------------------------------------------------------------------
>-----------------------------------------------------------------------
>
>-----2----2---2--------2---2---2--------2----2---2--------2---2---2---
>-----2--44---4---4------44---4---4--------44---4---4-------44---4---4-
>----------------------------------------------------------------------
>----------------------------------------------------------------------
>-0h2---------------1h2--------------0h2---------------1h2-------------
>----------------------------------------------------------------------
>
>----9--9/7--6-7----7/9-7-6-4-6----9-9/7--6-7--7/9--9-9-9--------------
>----9--9/7--7-7----7/9-7-7-6-7----9-9/7--7-7--7/9--9-9-9--------------
>-----------------------------------------------------------------------
>-----------------------------------------------------------------------
>-----------------------------------------------------------------------
>-----------------------------------------------------------------------
>
>         There clothes are imitation...
>-----------------------5-----------------5-----------------------------
>--3-2h3--3-2h3----3-2h3--3-2-3--3-2h3-----2-3--3-4-6-7---5b-5b--2------
>---------------4--------------4----------------------------------------
>-----------------------------------------------------------------------
>-----------------------------------------------------------------------
>-----------------------------------------------------------------------
>
>-----2----2---2--------2---2---2--------2----2---2--------2---2---2----
>-----2--44---4---4------44---4---4------2--44---4---4------44---4---4--
>-----------------------------------------------------------------------
>-----------------------------------------------------------------------
>-0h2---------------1h2--------------0h2---------------1h2--------------
>-----------------------------------------------------------------------
>
>
>...to get them fixed
>--------------------16-15-14-------------
>----------------------------5b-5b-2------
>-----------------------------------------
>-----------------------------------------
>-----------------------------------------
>-----------------------------------------
>
>-----2----2---2--------2---2---2--------2----2---2--------2---2---2---
>-------44---4---4-------44---4---4------2--44---4---4------44---4---4-
>----------------------------------------------------------------------
>----------------------------------------------------------------------
>-0h2---------------1h2--------------0h2---------------1h2-------------
>----------------------------------------------------------------------
>            they'd sacrifice...                        cash it in
>-----------------------------------------5-----------------------------
>--3-2h3--3-2h3----3-2h3--3-2-3--3-2h3-----2-3--3-4-6-7---5b-5b--2------
>---------------4--------------4----------------------------------------
>-----------------------------------------------------------------------
>-----------------------------------------------------------------------
>-----------------------------------------------------------------------
>End with these two riffs.
>
>-----2----2---2--------2---2---2--------2----2---2--------2---2---2---
>-----2--44---4---4------44---4---4------2--44---4---4------4---4---4--
>----------------------------------------------------------------------
>----------------------------------------------------------------------
>-0h2---------------1h2--------------0h2---------------1h2-------------
>----------------------------------------------------------------------
>
>----9--9/7--6-7----7/9-7-6-4-6----9-9/7--6-7--7/9--9-9-9-6------------
>----9--9/7--7-7----7/9-7-7-6-7----9-9/7--7-7--7/9--9-9-9-7------------
>-----------------------------------------------------------------------
>-----------------------------------------------------------------------
>-----------------------------------------------------------------------
>-----------------------------------------------------------------------
>
>comments: davidj_pearson@hotmail.com


And here are the chords :


A chord diagramG+G          A chord diagramC majorC                A chord diagramD MajorD      A chord diagramG+G
 I take the cue from ...
A chord diagramC majorC                       A chord diagramD MajorD             A chord diagramG+G        (Now you play the 1st fill)
 I use the cue and then I hand ...

A chord diagramD#D#          A chord diagramC minorCm             A chord diagramD#D#         A chord diagramC minorCm
 And when I swing it so it ...,
 A chord diagramD MajorD              A chord diagramC majorC                 A chord diagramG+G
 Would you dare? ...
              A chord diagramC majorC               A chord diagramD MajorD              A chord diagramG+G
 I trust the views of ...
              A chord diagramC majorC               A chord diagramD MajorD                     A chord diagramG+G (And the 1st fill again)
 They look at danger and they ...
A chord diagramD#D#                 A chord diagramC minorCm       A chord diagramD#D#          A chord diagramC minorCm
 Their clothes are ...
 A chord diagramD MajorD              A chord diagramC majorC           A chord diagramG+G
 Don't you find ...

             A chord diagramC majorC              A chord diagramD MajorD                A chord diagramG+G
 I'd hate to be like ...
                  A chord diagramC majorC               A chord diagramD MajorD
 They break their necks and can't afford to get them fixed
(Now play the 2nd fill, and after him the 3rd fill).


A chord diagramD#D#       A chord diagramC minorCm         A chord diagramD#D#        A chord diagramC minorCm
 They'd sacrifice all of ...
A chord diagramD MajorD           A chord diagramC majorC
 ``Anything casual'' --
A chord diagramG+G     A chord diagramC majorC       A chord diagramD MajorD           A chord diagramG+G
 I do believe ...
A chord diagramC majorC          A chord diagramD MajorD            A chord diagramG+G
 Oh, oh, oh. ....
A chord diagramC majorC          A chord diagramD MajorD           A chord diagramG+G
 Oh, oh, oh. ....
 A chord diagramC majorC          A chord diagramD MajorD               (Now is the 3rd fill, play it twice)
 Oh, oh, oh. ...


In the end, play again The A chord diagramG+G pattern, and the the outro.


Well, that's it for now. Again, any correction, comments, requests or
anything - my email is Itay Kashti <marshak@inter.net.il>. thanks in advance.

Goodbye for now.
Itay.

Other versions of Certain People I Know

Certain people I knowChords

Almost there ...

Sign in to get your own page with links to favourite songs and more. You are just one click away...

Login with Facebook Login with Google