Log in

One click and you are in

Login with Facebook Login with Google

Why sign up and log in

Guitar Tabs Explorer
Van Morrison bass tabs for Moondance

Bass tabs

van_morrison-moon_dance.btab

Basstab by Jan Bjorklund, Finland;
jani_bjorklund@yahoo.se
You are welcome to request for basstabs!
Bienvenidos a pedirme transcripciones para el bajo!
Fingering and positions as suggested by TablEdit.

TablEdited by Jan Bjorklund

Tuning : E A D G 	Time Signature: 4/4

 |    |    |    |     |    |    |    |
|-2-------2-------4----------------|-2---------------4----------------|
|-------------------------2--------|---------2---------------2--------|
|----------------------------------|----------------------------------|
|----------------------------------|----------------------------------|

 |    |    |    |     |    |    |    |
|-2---2---3-------4-------4--------|-5-------4-------4----------------|
|----------------------------------|-------------------------2--------|
|----------------------------------|----------------------------------|
|----------------------------------|----------------------------------|

 |    |    |    |     |    |    |    |
|-2---2---3-------4----------------|-2-------3-------4----------------|
|-------------------------2--------|-------------------------2---5----|
|----------------------------------|----------------------------------|
|----------------------------------|----------------------------------|

 |    |    |    |     |    |    |    |
|-2---2---3-------4----------------|-5-------4---2---4----------------|
|-------------------------2--------|-------------------------2---5----|
|----------------------------------|----------------------------------|
|----------------------------------|----------------------------------|

 |    |    |    |     |    |    |    |
|-2---2---3-------4----------------|-2-------3-------4----------------|
|-------------------------2--------|-------------------------2---5----|
|----------------------------------|----------------------------------|
|----------------------------------|----------------------------------|

 |    |    |    |     |    |    |    |
|-2---2---3-------4----------------|-2--------------------------------|
|-------------------------2--------|---------4-------2----------------|
|----------------------------------|-------------------------3--------|
|----------------------------------|----------------------------------|

 |    |    |    |     |    |    |    |
|-2---2---3-------4-------3---4----|-5-------4---2--------------------|
|----------------------------------|-----------------2-------5---2----|
|----------------------------------|----------------------------------|
|----------------------------------|----------------------------------|

 |    |    |    |     |    |    |    |
|-2---2---3-------4-------3---4----|-----------------9-------7--------|
|----------------------------------|-10------7-------------------9----|
|----------------------------------|----------------------------------|
|----------------------------------|----------------------------------|

 |    |    |    |     |    |    |    |
|-2---2---3-------4----------------|-2---------------4----------------|
|-------------------------2---5----|---------4---------------2---5----|
|----------------------------------|----------------------------------|
|----------------------------------|----------------------------------|

 |    |    |    |     |    |    |    |
|-2---2---3-------4-------2---4----|-5-------4------------------------|
|----------------------------------|-----------------5-------2--------|
|----------------------------------|----------------------------------|
|----------------------------------|----------------------------------|

 |    |    |    |     |    |    |    |
|-----------------0-------1--------|-2---2----------------------------|
|-0-------3------------------------|----------------------------------|
|----------------------------------|---------0-------2-------3--------|
|----------------------------------|----------------------------------|

 |    |    |    |     |    |    |    |
|-------------------------0--------|-2---2----------------------------|
|-0-------2-------3----------------|----------------------------------|
|----------------------------------|---------0-------3-------4--------|
|----------------------------------|----------------------------------|

 |    |    |    |     |    |    |    |
|-----------------0-------1--------|-2---2----------------------------|
|-0-------3------------------------|----------------------------------|
|----------------------------------|---------0-------2-------3--------|
|----------------------------------|----------------------------------|

 |    |    |    |     |    |    |    |
|----------------------------------|----------------------------------|
|-----0-----0-----0----------------|-----2-----2-----2----------------|
|----------------------------------|-----------------------------0----|
|----------------------------------|---------------------0---3--------|

 |    |    |    |     |    |    |    |
|-------------------------0---2----|---------5---7--------------------|
|-------------0-------2---3--------|-----7----------------------------|
|-----0---3------------------------|----------------------------------|
|----------------------------------|---------------------0---3---5----|

 |    |    |    |     |    |    |    |
|-------------------------0---2----|---------5---7--------------------|
|-------------0-------2------------|-----7----------------------------|
|-----0---3------------------------|----------------------------------|
|----------------------------------|---------------------0---3---5----|

 |    |    |    |     |    |    |    |
|-------------------------0---2----|---------5---7--------------------|
|-------------0-------2------------|-----7----------------------------|
|-----0---3------------------------|----------------------------------|
|----------------------------------|---------------------0---3---5----|

 |    |    |    |     |    |    |    |
|-------------------------0---2----|----------------------------------|
|-------------0-------2------------|---------2------------------------|
|-----0---3------------------------|----------------------------------|
|----------------------------------|----------------------------------|

 |    |    |    |     |    |    |    |
|-2---2---3-------4----------------|-2-------3-------4----------------|
|-------------------------2--------|-------------------------2---5----|
|----------------------------------|----------------------------------|
|----------------------------------|----------------------------------|

 |    |    |    |     |    |    |    |
|-2---2---3-------4----------------|-5-------4---2---4----------------|
|-------------------------2--------|-------------------------2---5----|
|----------------------------------|----------------------------------|
|----------------------------------|----------------------------------|

 |    |    |    |     |    |    |    |
|-2---2---3-------4----------------|-2-------3-------4----------------|
|-------------------------2--------|-------------------------2---5----|
|----------------------------------|----------------------------------|
|----------------------------------|----------------------------------|

 |    |    |    |     |    |    |    |
|-2---2---3-------4----------------|-2--------------------------------|
|-------------------------2--------|---------4-------2----------------|
|----------------------------------|-------------------------3--------|
|----------------------------------|----------------------------------|

 |    |    |    |     |    |    |    |
|-2---2---3-------4-------3---4----|-5-------4---2--------------------|
|----------------------------------|-----------------2-------5---2----|
|----------------------------------|----------------------------------|
|----------------------------------|----------------------------------|

 |    |    |    |     |    |    |    |
|-2---2---3-------4-------3---4----|-----------------9-------7--------|
|----------------------------------|-10------7-------------------9----|
|----------------------------------|----------------------------------|
|----------------------------------|----------------------------------|

 |    |    |    |     |    |    |    |
|-2---2---3-------4----------------|-2---------------4----------------|
|-------------------------2---5----|---------4---------------2---5----|
|----------------------------------|----------------------------------|
|----------------------------------|----------------------------------|

 |    |    |    |     |    |    |    |
|-2---2---3-------4-------2---4----|-5-------4------------------------|
|----------------------------------|-----------------5-------2--------|
|----------------------------------|----------------------------------|
|----------------------------------|----------------------------------|

 |    |    |    |     |    |    |    |
|-----------------0-------1--------|-2---2----------------------------|
|-0-------3------------------------|----------------------------------|
|----------------------------------|---------0-------2-------3--------|
|----------------------------------|----------------------------------|

 |    |    |    |     |    |    |    |
|-------------------------0--------|-2---2----------------------------|
|-0-------2-------3----------------|----------------------------------|
|----------------------------------|---------0-------3-------4--------|
|----------------------------------|----------------------------------|

 |    |    |    |     |    |    |    |
|-----------------0-------1--------|-2---2----------------------------|
|-0-------3------------------------|----------------------------------|
|----------------------------------|---------0-------2-------3--------|
|----------------------------------|----------------------------------|

 |    |    |    |     |    |    |    |
|----------------------------------|----------------------------------|
|-----0-----0-----0----------------|-----2-----2-----2----------------|
|----------------------------------|-----------------------------0----|
|----------------------------------|---------------------0---3--------|

 |    |    |    |     |    |    |    |
|-------------------------0---2----|---------5---7--------------------|
|-------------0-------2---3--------|-----7----------------------------|
|-----0---3------------------------|----------------------------------|
|----------------------------------|---------------------0---3---5----|

 |    |    |    |     |    |    |    |
|-------------------------0---2----|---------5---7--------------------|
|-------------0-------2------------|-----7----------------------------|
|-----0---3------------------------|----------------------------------|
|----------------------------------|---------------------0---3---5----|

 |    |    |    |     |    |    |    |
|-------------------------0---2----|---------5---7--------------------|
|-------------0-------2------------|-----7----------------------------|
|-----0---3------------------------|----------------------------------|
|----------------------------------|---------------------0---3---5----|

 |    |    |    |     |    |    |    |
|-------------------------0---2----|----------------------------------|
|-------------0-------2------------|---------2------------------------|
|-----0---3------------------------|----------------------------------|
|----------------------------------|----------------------------------|

 |    |    |    |     |    |    |    |
|-2---2---3-------4----------------|-2-------3-------4----------------|
|-------------------------2--------|-------------------------2---5----|
|----------------------------------|----------------------------------|
|----------------------------------|----------------------------------|

 |    |    |    |     |    |    |    |
|-2---2---3-------4----------------|-5-------4---2---4----------------|
|-------------------------2--------|-------------------------2---5----|
|----------------------------------|----------------------------------|
|----------------------------------|----------------------------------|

 |    |    |    |     |    |    |    |
|-2---2---3-------4----------------|-2-------3-------4----------------|
|-------------------------2--------|-------------------------2---5----|
|----------------------------------|----------------------------------|
|----------------------------------|----------------------------------|

 |    |    |    |     |    |    |    |
|-2---2---3-------4----------------|-2--------------------------------|
|-------------------------2--------|---------4-------2----------------|
|----------------------------------|-------------------------3--------|
|----------------------------------|----------------------------------|

 |    |    |    |     |    |    |    |
|-2---2---3-------4-------3---4----|-5-------4---2--------------------|
|----------------------------------|-----------------2-------5---2----|
|----------------------------------|----------------------------------|
|----------------------------------|----------------------------------|

 |    |    |    |     |    |    |    |
|-2---2---3-------4-------3---4----|-----------------9-------7--------|
|----------------------------------|-10------7-------------------9----|
|----------------------------------|----------------------------------|
|----------------------------------|----------------------------------|

 |    |    |    |     |    |    |    |
|-2---2---3-------4----------------|-2---------------4----------------|
|-------------------------2---5----|---------4---------------2---5----|
|----------------------------------|----------------------------------|
|----------------------------------|----------------------------------|

 |    |    |    |     |    |    |    |
|-2---2---3-------4-------2---4----|-5-------4------------------------|
|----------------------------------|-----------------5-------2--------|
|----------------------------------|----------------------------------|
|----------------------------------|----------------------------------|

 |    |    |    |     |    |    |    |
|-----------------0-------1--------|-2---2----------------------------|
|-0-------3------------------------|----------------------------------|
|----------------------------------|---------0-------2-------3--------|
|----------------------------------|----------------------------------|

 |    |    |    |     |    |    |    |
|-------------------------0--------|-2---2----------------------------|
|-0-------2-------3----------------|----------------------------------|
|----------------------------------|---------0-------3-------4--------|
|----------------------------------|----------------------------------|

 |    |    |    |     |    |    |    |
|-----------------0-------1--------|-2---2----------------------------|
|-0-------3------------------------|----------------------------------|
|----------------------------------|---------0-------2-------3--------|
|----------------------------------|----------------------------------|

 |    |    |    |     |    |    |    |
|----------------------------------|----------------------------------|
|-----0-----0-----0----------------|-----2-----2-----2----------------|
|----------------------------------|-----------------------------0----|
|----------------------------------|---------------------0---3--------|

 |    |    |    |     |    |    |    |
|-------------------------0---2----|---------5---7--------------------|
|-------------0-------2---3--------|-----7----------------------------|
|-----0---3------------------------|----------------------------------|
|----------------------------------|---------------------0---3---5----|

 |    |    |    |     |    |    |    |
|-------------------------0---2----|---------5---7--------------------|
|-------------0-------2------------|-----7----------------------------|
|-----0---3------------------------|----------------------------------|
|----------------------------------|---------------------0---3---5----|

 |    |    |    |     |    |    |    |
|-------------------------0---2----|---------5---7--------------------|
|-------------0-------2------------|-----7----------------------------|
|-----0---3------------------------|----------------------------------|
|----------------------------------|---------------------0---3---5----|

 |    |    |    |     |    |    |    |
|-------------------------0---2----|----------------------------------|
|-------------0-------2------------|---------2------------------------|
|-----0---3------------------------|----------------------------------|
|----------------------------------|----------------------------------|

 |    |    |    |     |    |    |    |
|-2---2---3-------4----------------|-2-------3-------4----------------|
|-------------------------2--------|-------------------------2---5----|
|----------------------------------|----------------------------------|
|----------------------------------|----------------------------------|

 |    |    |    |     |    |    |    |
|-2---2---3-------4----------------|-5-------4---2---4----------------|
|-------------------------2--------|-------------------------2---5----|
|----------------------------------|----------------------------------|
|----------------------------------|----------------------------------|

 |    |    |    |     |    |    |    |
|-2---2---3-------4----------------|-2-------3-------4----------------|
|-------------------------2--------|-------------------------2---5----|
|----------------------------------|----------------------------------|
|----------------------------------|----------------------------------|

 |    |    |    |     |    |    |    |
|-2---2---3-------4----------------|-2--------------------------------|
|-------------------------2--------|---------4-------2----------------|
|----------------------------------|-------------------------3--------|
|----------------------------------|----------------------------------|

 |    |    |    |     |    |    |    |
|-2---2---3-------4-------3---4----|-5-------4---2--------------------|
|----------------------------------|-----------------2-------5---2----|
|----------------------------------|----------------------------------|
|----------------------------------|----------------------------------|

 |    |    |    |     |    |    |    |
|-2---2---3-------4-------3---4----|-----------------9-------7--------|
|----------------------------------|-10------7-------------------9----|
|----------------------------------|----------------------------------|
|----------------------------------|----------------------------------|

 |    |    |    |     |    |    |    |
|-2---2---3-------4----------------|-2---------------4----------------|
|-------------------------2---5----|---------4---------------2---5----|
|----------------------------------|----------------------------------|
|----------------------------------|----------------------------------|

 |    |    |    |     |    |    |    |
|-2---2---3-------4-------2---4----|-5-------4------------------------|
|----------------------------------|-----------------5-------2--------|
|----------------------------------|----------------------------------|
|----------------------------------|----------------------------------|

 |    |    |    |     |    |    |    |
|-----------------0-------1--------|-2---2----------------------------|
|-0-------3------------------------|----------------------------------|
|----------------------------------|---------0-------2-------3--------|
|----------------------------------|----------------------------------|

 |    |    |    |     |    |    |    |
|-------------------------0--------|-2---2----------------------------|
|-0-------2-------3----------------|----------------------------------|
|----------------------------------|---------0-------3-------4--------|
|----------------------------------|----------------------------------|

 |    |    |    |     |    |    |    |
|-----------------0-------1--------|-2---2----------------------------|
|-0-------3------------------------|----------------------------------|
|----------------------------------|---------0-------2-------3--------|
|----------------------------------|----------------------------------|

 |    |    |    |     |    |    |    |
|----------------------------------|----------------------------------|
|-----0-----0-----0----------------|-----2-----2-----2----------------|
|----------------------------------|-----------------------------0----|
|----------------------------------|---------------------0---3--------|

 |    |    |    |     |    |    |    |
|-------------------------0---2----|---------5---7--------------------|
|-------------0-------2---3--------|-----7----------------------------|
|-----0---3------------------------|----------------------------------|
|----------------------------------|---------------------0---3---5----|

 |    |    |    |     |    |    |    |
|-------------------------0---2----|---------5---7--------------------|
|-------------0-------2------------|-----7----------------------------|
|-----0---3------------------------|----------------------------------|
|----------------------------------|---------------------0---3---5----|

 |    |    |    |     |    |    |    |
|-------------------------0---2----|---------5---7--------------------|
|-------------0-------2------------|-----7----------------------------|
|-----0---3------------------------|----------------------------------|
|----------------------------------|---------------------0---3---5----|

 |    |    |    |     |    |    |    |
|-------------------------0---2----|----------------------------------|
|-------------0-------2------------|---------2------------------------|
|-----0---3------------------------|----------------------------------|
|----------------------------------|----------------------------------|

 |    |    |    |     |    |    |    |
|-2-------2-------4----------------|-2---------------4----------------|
|-------------------------2--------|---------2---------------2--------|
|----------------------------------|----------------------------------|
|----------------------------------|----------------------------------|

 |    |    |    |     |    |    |    |
|-2---2---3-------4-------4--------|-5-------4-------4----------------|
|----------------------------------|-------------------------2--------|
|----------------------------------|----------------------------------|
|----------------------------------|----------------------------------|

 |    |    |    |     |    |    |    |
|-2---2---3-------4----------------|-2-------3-------4----------------|
|-------------------------2--------|-------------------------2---5----|
|----------------------------------|----------------------------------|
|----------------------------------|----------------------------------|

 |    |    |    |     |    |    |    |
|-2---2---3-------4----------------|-5-------4---2---4----------------|
|-------------------------2--------|-------------------------2---5----|
|----------------------------------|----------------------------------|
|----------------------------------|----------------------------------|

 |    |    |    |     |    |    |    |
|-2---2---3-------4----------------|-2-------3-------4----------------|
|-------------------------2--------|-------------------------2---5----|
|----------------------------------|----------------------------------|
|----------------------------------|----------------------------------|

 |    |    |    |     |    |    |    |
|-2---2---3-------4----------------|-2--------------------------------|
|-------------------------2--------|---------4-------2----------------|
|----------------------------------|-------------------------3--------|
|----------------------------------|----------------------------------|

 |    |    |    |     |    |    |    |
|-2---------------0----------------|----------------------------------|
|----------------------------------|-3---------------2----------------|
|----------------------------------|----------------------------------|
|----------------------------------|----------------------------------|

 |    |    |    |     |    |    |    |
|----------------------------------|-----------------------------2----|
|-0--------------------------------|----------------------------------|
|----------------------------------|-----------------------------0----|
|----------------------------------|----------------------------------|

Other versions of Moondance

Moondance (Ver. 2)Bass tabs

Almost there ...

Sign in to get your own page with links to favourite songs and more. You are just one click away...

Login with Facebook Login with Google