Domino by Van Morrison

Domino bass tab by Van Morrison

Bass tabs

van_morrison-domino.btab

Basstab by Jan Bjorklund, Finland;
jani_bjorklund@yahoo.se
You are welcome to request for basstabs!
Bienvenidos a pedirme transcripciones para el bajo!
Fingering and positions as suggested by TablEdit.

TablEdited by Jan Bjorklund
Tuning : E A D G 	Time Signature: 4/4

 |    |    |    |     |    |    |    |
|----------------------------------|----------------------------------|
|-----------------0----------------|----------------------------------|
|-0-------------------2---0--------|-0---------------2---0------------|
|---------0-------------------2----|-----4---2---------------2---0----|

 |    |    |    |     |    |    |    |
|-------------------------0---2----|----------------------------------|
|-------------2---0---4------------|-------------------------0--------|
|-0---2---4------------------------|-0---------------2----------------|
|----------------------------------|---------4---2--------------------|

 |    |    |    |     |    |    |    |
|-------------------------0---2----|----------------------------------|
|-------------2---0---4------------|-------------------------0--------|
|-0---2---4------------------------|-0---------------2----------------|
|----------------------------------|---------4---2--------------------|

 |    |    |    |     |    |    |    |
|-------------------------0---2----|----------------------------------|
|-------------2---0---4------------|-------------------------0--------|
|-0---2---4------------------------|-0---------------2----------------|
|----------------------------------|---------4---2--------------------|

 |    |    |    |     |    |    |    |
|----------------------------------|----------------------------------|
|-----------------0----------------|----------------------------------|
|-0-----------------------4---2----|-0---------------2-------4--------|
|---------2------------------------|-----2---0---2--------------------|

 |    |    |    |     |    |    |    |
|-------------------------0---2----|----------------------------------|
|-----------------0---4------------|---------------------0---2---4----|
|-0---2---4------------------------|-0---------------2----------------|
|----------------------------------|-----2---0---2--------------------|

 |    |    |    |     |    |    |    |
|-------------------------0---2----|----------------------------------|
|-------------2---0---4------------|-------------------------0--------|
|-0---2---4------------------------|-0---------------2----------------|
|----------------------------------|---------4---2--------------------|

 |    |    |    |     |    |    |    |
|----------------------------------|----------------------------------|
|-----------------0-------2--------|---------0------------------------|
|-0-------2------------------------|-0---4-------4---2----------------|
|----------------------------------|----------------------------------|

 |    |    |    |     |    |    |    |
|----------------------------------|----------------------------------|
|-----------------0---0---4---2----|-----------------0---0---4---2----|
|-0---0---4---4--------------------|-0---0---4---4--------------------|
|----------------------------------|----------------------------------|

 |    |    |    |     |    |    |    |
|----------------------------------|----------------------------------|
|-------------2---0---0---4---2----|-----------------0---0---4---2----|
|-0---0---4------------------------|-0---0---4---4--------------------|
|----------------------------------|----------------------------------|

 |    |    |    |     |    |    |    |
|----------------------------------|----------------------------------|
|-------------2---0---0---4---2----|-----------------0---0---4---2----|
|-0---0---4------------------------|-0---0---4---4--------------------|
|----------------------------------|----------------------------------|

 |    |    |    |     |    |    |    |
|----------------------------------|----------------------------------|
|-----------------0---0---4---2----|-----------------0---0---4---2----|
|-0---0---4---4--------------------|-0---0---4---4--------------------|
|----------------------------------|----------------------------------|

 |    |    |    |     |    |    |    |
|----------------------------------|----------------------------------|
|-------------2---0---0---4---2----|-----------------0---0---4---2----|
|-0---0---4------------------------|-0---0---4---4--------------------|
|----------------------------------|----------------------------------|

 |    |    |    |     |    |    |    |
|----------------------------------|----------------------------------|
|-----------------0---0---4---2----|-----------------0---0---4---2----|
|-0---0---4---4--------------------|-0---0---4---4--------------------|
|----------------------------------|----------------------------------|

 |    |    |    |     |    |    |    |
|----------------------------------|----------------------------------|
|---------0-------2-------4--------|----------------------------------|
|-2--------------------------------|-------------------------2--------|
|----------------------------------|-0-------2-------4----------------|

 |    |    |    |     |    |    |    |
|-----------------------------2----|----------------------------------|
|-----------------0---4---4--------|-------------2---0----------------|
|-0-------2------------------------|-0---2---4---------------4--------|
|----------------------------------|----------------------------------|

 |    |    |    |     |    |    |    |
|----------------------------------|----------------------------------|
|---------0-------2-------4--------|----------------------------------|
|-2--------------------------------|-------------------------2--------|
|----------------------------------|-0-------2-------4----------------|

 |    |    |    |     |    |    |    |
|----------------------------------|----------------------------------|
|-----------------0-------4--------|-----------------0----------------|
|-0-------2---4--------------------|-0-------2---------------2---0----|
|----------------------------------|----------------------------------|

 |    |    |    |     |    |    |    |
|-----------------------------2----|-------------------------6--------|
|---------------------2---4--------|-----7-------4---7----------------|
|-0-----------2---4----------------|----------------------------------|
|----------------------------------|----------------------------------|

 |    |    |    |     |    |    |    |
|-----------------------------2----|-----2-----------2----------------|
|---------------------2---4--------|-------------4--------------------|
|-0-----------2---4----------------|----------------------------------|
|----------------------------------|----------------------------------|

 |    |    |    |     |    |    |    |
|-----------------------------2----|-------------------------6--------|
|---------------------2---4--------|-----7-------4---7----------------|
|-0-----------2---4----------------|----------------------------------|
|----------------------------------|----------------------------------|

 |    |    |    |     |    |    |    |
|-----------------------------2----|-----2-----------2----------------|
|---------------------2---4--------|-------------4--------------------|
|-0-----------2---4----------------|----------------------------------|
|----------------------------------|----------------------------------|

 |    |    |    |     |    |    |    |
|----------------------------------|----------------------------------|
|-----------------0----------------|----------------------------------|
|-0-------------------2---0--------|-0---------------2---0------------|
|---------0-------------------2----|-----4---2---------------2---0----|

 |    |    |    |     |    |    |    |
|-------------------------0---2----|----------------------------------|
|-------------2---0---4------------|-------------------------0--------|
|-0---2---4------------------------|-0---------------2----------------|
|----------------------------------|---------4---2--------------------|

 |    |    |    |     |    |    |    |
|-------------------------0---2----|----------------------------------|
|-------------2---0---4------------|-------------------------0--------|
|-0---2---4------------------------|-0---------------2----------------|
|----------------------------------|---------4---2--------------------|

 |    |    |    |     |    |    |    |
|-------------------------0---2----|----------------------------------|
|-------------2---0---4------------|-------------------------0--------|
|-0---2---4------------------------|-0---------------2----------------|
|----------------------------------|---------4---2--------------------|

 |    |    |    |     |    |    |    |
|----------------------------------|----------------------------------|
|-----------------0----------------|----------------------------------|
|-0-----------------------4---2----|-0---------------2-------4--------|
|---------2------------------------|-----2---0---2--------------------|

 |    |    |    |     |    |    |    |
|-------------------------0---2----|----------------------------------|
|-----------------0---4------------|---------------------0---2---4----|
|-0---2---4------------------------|-0---------------2----------------|
|----------------------------------|-----2---0---2--------------------|

 |    |    |    |     |    |    |    |
|-------------------------0---2----|----------------------------------|
|-------------2---0---4------------|-------------------------0--------|
|-0---2---4------------------------|-0---------------2----------------|
|----------------------------------|---------4---2--------------------|

 |    |    |    |     |    |    |    |
|----------------------------------|----------------------------------|
|-----------------0-------2--------|---------0------------------------|
|-0-------2------------------------|-0---4-------4---2----------------|
|----------------------------------|----------------------------------|

 |    |    |    |     |    |    |    |
|----------------------------------|----------------------------------|
|-----------------0---0---4---2----|-----------------0---0---4---2----|
|-0---0---4---4--------------------|-0---0---4---4--------------------|
|----------------------------------|----------------------------------|

 |    |    |    |     |    |    |    |
|----------------------------------|----------------------------------|
|-------------2---0---0---4---2----|-----------------0---0---4---2----|
|-0---0---4------------------------|-0---0---4---4--------------------|
|----------------------------------|----------------------------------|

 |    |    |    |     |    |    |    |
|----------------------------------|----------------------------------|
|-------------2---0---0---4---2----|-----------------0---0---4---2----|
|-0---0---4------------------------|-0---0---4---4--------------------|
|----------------------------------|----------------------------------|

 |    |    |    |     |    |    |    |
|----------------------------------|----------------------------------|
|-----------------0---0---4---2----|-----------------0---0---4---2----|
|-0---0---4---4--------------------|-0---0---4---4--------------------|
|----------------------------------|----------------------------------|

 |    |    |    |     |    |    |    |
|-----------------------------2----|----------------------------------|
|-------------2---0---0---4--------|-----------------0---0---4---2----|
|-0---0---4------------------------|-0---0---4---4--------------------|
|----------------------------------|----------------------------------|

 |    |    |    |     |    |    |    |
|-----------------------------2----|----------------------------------|
|-----------------0---0---4--------|-----------------0---0---4---2----|
|-0---0---4---4--------------------|-0---0---4---4--------------------|
|----------------------------------|----------------------------------|

 |    |    |    |     |    |    |    |
|----------------------------------|----------------------------------|
|---------0-------2-------4--------|----------------------------------|
|-2--------------------------------|-------------------------2--------|
|----------------------------------|-0-------2-------4----------------|

 |    |    |    |     |    |    |    |
|-----------------------------2----|----------------------------------|
|-----------------0---4---4--------|-------------2---0----------------|
|-0-------2------------------------|-0---2---4---------------4--------|
|----------------------------------|----------------------------------|

 |    |    |    |     |    |    |    |
|----------------------------------|----------------------------------|
|---------0-------2-------4--------|----------------------------------|
|-2--------------------------------|-------------------------2--------|
|----------------------------------|-0-------2-------4----------------|

 |    |    |    |     |    |    |    |
|----------------------------------|-----------------------------2----|
|-----------------0---0---4---2----|-----------------0---0---4--------|
|-0---0---4---4--------------------|-0---0---4---4--------------------|
|----------------------------------|----------------------------------|

 |    |    |    |     |    |    |    |
|----------------------------------|-----------------------------2----|
|-------------2---0---0---4---2----|-----------------0---0---4--------|
|-0---0---4------------------------|-0---0---4---4--------------------|
|----------------------------------|----------------------------------|

 |    |    |    |     |    |    |    |
|----------------------------------|-----------------------------2----|
|-----------------0---0---4---2----|-----------------0---0---4--------|
|-0---0---4---4--------------------|-0---0---4---4--------------------|
|----------------------------------|----------------------------------|

 |    |    |    |     |    |    |    |
|----------------------------------|-----------------------------2----|
|-------------2---0---0---4---2----|-----------------0---0---4--------|
|-0---0---4------------------------|-0---0---4---4--------------------|
|----------------------------------|----------------------------------|

 |    |    |    |     |    |    |    |
|----------------------------------|-----------------------------2----|
|-----------------0---0---4---2----|-----------------0---0---4--------|
|-0---0---4---4--------------------|-0---0---4---4--------------------|
|----------------------------------|----------------------------------|

 |    |    |    |     |    |    |    |
|-----------------------------2----|-------------------------6--------|
|---------------------2---4--------|-----7-------4---7----------------|
|-0-----------2---4----------------|----------------------------------|
|----------------------------------|----------------------------------|

 |    |    |    |     |    |    |    |
|-----------------------------2----|-----2-----------2----------------|
|---------------------2---4--------|-------------4--------------------|
|-0-----------2---4----------------|----------------------------------|
|----------------------------------|----------------------------------|

 |    |    |    |     |    |    |    |
|-----------------------------2----|-------------------------6--------|
|---------------------2---4--------|-----7-------4---7----------------|
|-0-----------2---4----------------|----------------------------------|
|----------------------------------|----------------------------------|

 |    |    |    |     |    |    |    |
|-----------------------------2----|-----2-----------2----------------|
|---------------------2---4--------|-------------4--------------------|
|-0-----------2---4----------------|----------------------------------|
|----------------------------------|----------------------------------|


m/

Find guitar tabs and chords

A B C D E F G H I J K L M N O P Q R S T U V W X Y Z #