Search tabs and chords

Search for song, artist or band

Log in

One click and you are in

Login with Facebook Login with Google

Why sign up and log in

Guitar Tabs Explorer
Maren Morris bass tabs for Rich

Bass tabs

Standard tuning

Verses(x4) and choruses(x2):

G |---------------------------------------
D |---------------------------------------
A |--------0--1-1----1-3-3--3--3-3--1-----
E |-1-1-----------------------------------

G |---------------------------------------
D |---------------------------------------
A |--------0--1-1----1-3-3--3--3-3--1-----
E |-1-1-----------------------------------

(*Last line of each verse and chorus play this*)

G |---------------------------------------
D |---------------------------------------
A |--------0--1-1----1-3-3-3-3-3-3--------
E |-1-1-----------------------------------

Bridge: (only play once)

G |----------------------------------------
D |----------------------------------------
A |----------------------------------------
E |---1--------------1-1-1-1-1-------------


THE END

Almost there ...

Sign in to get your own page with links to favourite songs and more. You are just one click away...

Login with Facebook Login with Google