Search tabs and chords

Search for song, artist or band

Log in

One click and you are in

Login with Facebook Login with Google

Why sign up and log in

Guitar Tabs Explorer
Maren Morris guitar tabs for My church (Ver. 2)

Solo tabs

Maren Morris
"My Church"
Tabbed by Bighunt23


Guitar Solo:

(w/slide)

e|----------------------------------------------|
B|--------10------10~---------------------------|
G|--9/11------11--------9/11-9/11--9------------|
D|----------------------------------------------|
A|----------------------------------------------|
E|----------------------------------------------|

e|----------------------------------------------|
B|----------------/10--/12--/14--/12------------|
G|--6\4--2/4/6----------------------------------|
D|----------------------------------------------|
A|----------------------------------------------|
E|----------------------------------------------|

     hold
e|----------------------------------------------|
B|--12------/14\12---10-------------------------|
G|----------------------------------------------|
D|----------------------------------------------|
A|----------------------------------------------|
E|----------------------------------------------|


************************************

| /  Slide up
| \  Slide down
| ~  Vibrato

Other versions of My Church

My churchChords
My church (Ver. 2)Chords
My church (Ver. 3)Chords
My church (Ver. 4)Chords
My church (Ver. 5)Chords
Mychurch - soloTabs

Almost there ...

Sign in to get your own page with links to favourite songs and more. You are just one click away...

Login with Facebook Login with Google