Search tabs and chords

Search for song, artist or band

Log in

One click and you are in

Login with Facebook Login with Google

Why sign up and log in

Guitar Tabs Explorer
Maren Morris guitar tabs for Girl

Intro

Tuning: Standard (E chord diagramEE A chord diagramAA D chord diagramDD G chord diagramGG B chord diagramBB E chord diagramEE)

Difficulty: Novice

Intro:
  C# chord diagramC#C#               C# chord diagramC#C#               B chord diagramBB                A#m chord diagramA#mA#m
e|----------------|----------------|----------------|----------------|
B|-----6----------|-----6----------|----------------|----------------|
G|----------------|----------------|----4-----------|-----2----------|
D|----------------|----------------|----------------|----------------|
A|-4-4---4-4-4-4-4|-4-4---4-4-4-4-4|-2–2---2-2-2-2-2|-1-1---1-1-1-1-1|
E|----------------|----------------|----------------|----------------|

  C# chord diagramC#C#               C# chord diagramC#C#               B chord diagramBB                A#m chord diagramA#mA#m
e|----------------|----------------|----------------|----------------|
B|-----6----------|-----6----------|----------------|----------------|
G|----------------|----------------|----4-----------|-----2----------|
D|----------------|----------------|----------------|----------------|
A|-4-4---4-4-4-4-4|-4-4---4-4-4-4-4|-2–2---2-2-2-2-2|-1-1---1-1-1-1-1|
E|----------------|----------------|----------------|----------------|

(This melody is played for the entirety of the song but you can play the
chords for the chorus as the song does)

(A chord diagramAA really simple little riff and you can even slide on transition on the
A chord diagramAA string. Easy enough to start learning slides)

Other versions of Girl

GirlChords
Girl (Ver. 2)Chords
Girl ukuleleChords

Almost there ...

Sign in to get your own page with links to favourite songs and more. You are just one click away...

Login with Facebook Login with Google