Log in

One click and you are in

Login with Facebook Login with Google

Why sign up and log in

Guitar Tabs Explorer
Morphine bass tabs for The night

Bass tabs

Key: Fm


Intro:

Eb|-------------------------------|
Bb|-------------------------------|
F |---------------------------0---|
C |-------------------------------|

Eb|-------------------------------|
Bb|0------------------------------|
F |----------------3--------------|
C |-------------------------------|

Eb|-------------------------------|
Bb|-------------------------------|
F |0------------------------------|
C |----------------4--------------|

Eb|-------------------------------|
Bb|-------------------------------|
F |0------------------------------|
C |----------------3--------------|

Eb|-------------------------------|
Bb|-------------------------------|
F |-------------------------------|
C |1------------------------------|


Pre-chorus:

Eb|-------------------------------|
Bb|0------------------------------|
F |----------------3--------------|
C |-------------------------------|

Eb|-------------------------------|
Bb|-------------------------------|
F |0------------------------------|
C |----------------4--------------|

Eb|-------------------------------|
Bb|-------------------------------|
F |0------------------------------|
C |----------------3--------------|

Eb|-------------------------------|
Bb|-------------------------------|
F |-------------------------------|
C |1------------------------------|


Chorus:

Eb|-------------------------------|
Bb|0------------------------------|
F |----------------3--------------|
C |-------------------------------|

Eb|-------------------------------|
Bb|-------------------------------|
F |2---------------0--------------|
C |-------------------------------|

Eb|-------------------------------|
Bb|0------------------------------|
F |----------------3--------------|
C |-------------------------------|

Eb|-------------------------------|
Bb|2------------------------------|
F |----------------0--------------|
C |-------------------------------|

Eb|-------------------------------|
Bb|-------------------------------|
F |2---------------0--------------|
C |-------------------------------|

Eb|-------------------------------|
Bb|-------------------------------|
F |-------------------------------|
C |-------------------------------|


Verse 1:

Eb|-------------------------------|
Bb|0------------------------------|
F |----------------3--------------|
C |-------------------------------|

Eb|-------------------------------|
Bb|-------------------------------|
F |0------------------------------|
C |----------------4--------------|

Eb|-------------------------------|
Bb|-------------------------------|
F |0------------------------------|
C |----------------3--------------|

Eb|-------------------------------|
Bb|-------------------------------|
F |-------------------------------|
C |1------------------------------|


Pre-chorus:

Eb|-------------------------------|
Bb|0------------------------------|
F |----------------3--------------|
C |-------------------------------|

Eb|-------------------------------|
Bb|-------------------------------|
F |0------------------------------|
C |----------------4--------------|

Eb|-------------------------------|
Bb|-------------------------------|
F |0------------------------------|
C |----------------3--------------|

Eb|-------------------------------|
Bb|-------------------------------|
F |-------------------------------|
C |1------------------------------|


Chorus:

Eb|-------------------------------|
Bb|0------------------------------|
F |----------------3--------------|
C |-------------------------------|

Eb|-------------------------------|
Bb|-------------------------------|
F |2---------------0--------------|
C |-------------------------------|

Eb|-------------------------------|
Bb|0------------------------------|
F |----------------3--------------|
C |-------------------------------|

Eb|-------------------------------|
Bb|2------------------------------|
F |----------------0--------------|
C |-------------------------------|

Eb|-------------------------------|
Bb|-------------------------------|
F |2---------------0--------------|
C |-------------------------------|

Eb|-------------------------------|
Bb|-------------------------------|
F |-------------------------------|
C |-------------------------------|


Solo:

Eb|-------------------------------|
Bb|0------------------------------|
F |----------------3--------------|
C |-------------------------------|

Eb|-------------------------------|
Bb|-------------------------------|
F |0------------------------------|
C |----------------4--------------|

Eb|-------------------------------|
Bb|-------------------------------|
F |0------------------------------|
C |----------------3--------------|

Eb|-------------------------------|
Bb|-------------------------------|
F |-------------------------------|
C |1------------------------------|

Eb|-------------------------------|
Bb|0------------------------------|
F |----------------3--------------|
C |-------------------------------|

Eb|-------------------------------|
Bb|-------------------------------|
F |0------------------------------|
C |----------------4--------------|

Eb|-------------------------------|
Bb|-------------------------------|
F |0------------------------------|
C |----------------3--------------|

Eb|-------------------------------|
Bb|-------------------------------|
F |-------------------------------|
C |1------------------------------|


Chorus:

Eb|-------------------------------|
Bb|0------------------------------|
F |----------------3--------------|
C |-------------------------------|

Eb|-------------------------------|
Bb|-------------------------------|
F |2---------------0--------------|
C |-------------------------------|

Eb|-------------------------------|
Bb|0------------------------------|
F |----------------3--------------|
C |-------------------------------|

Eb|-------------------------------|
Bb|2------------------------------|
F |----------------0--------------|
C |-------------------------------|

Eb|-------------------------------|
Bb|-------------------------------|
F |2---------------0--------------|
C |-------------------------------|

Eb|-------------------------------|
Bb|-------------------------------|
F |-------------------------------|
C |-------------------------------|


Bridge:

Eb|-------------------------------|
Bb|0------------------------------|
F |----------------3--------------|
C |-------------------------------|

Eb|-------------------------------|
Bb|-------------------------------|
F |0------------------------------|
C |----------------4--------------|

Eb|-------------------------------|
Bb|-------------------------------|
F |0------------------------------|
C |----------------3--------------|

Eb|-------------------------------|
Bb|-------------------------------|
F |-------------------------------|
C |1------------------------------|

Eb|-------------------------------|
Bb|0------------------------------|
F |----------------3--------------|
C |-------------------------------|

Eb|-------------------------------|
Bb|-------------------------------|
F |0------------------------------|
C |----------------4--------------|

Eb|-------------------------------|
Bb|-------------------------------|
F |0------------------------------|
C |----------------3--------------|

Eb|-------------------------------|
Bb|-------------------------------|
F |-------------------------------|
C |1------------------------------|


Outro:

Eb|-------------------------------|
Bb|0------------------------------|
F |----------------3--------------|
C |-------------------------------|

Eb|-------------------------------|
Bb|-------------------------------|
F |2---------------0--------------|
C |-------------------------------|


Cheers and enjoy!
Roland

Almost there ...

Sign in to get your own page with links to favourite songs and more. You are just one click away...

Login with Facebook Login with Google