Log in

One click and you are in

Login with Facebook Login with Google

Why sign up and log in

Guitar Tabs Explorer
Moroder Giorgio tabs for Theme from midnight express

Theme From Midnight Express tab by Moroder Giorgio

Moroder Giorgio tabs for Theme from midnight express

Guitar tabs

THEME FROM MIDNIGHT EXPRESS

Giorgio Moroder
Capo 3º


  A chord diagramE minorEm                            B7sus           A chord diagramB7B7

E-2-0-----------2-0---------------------------------------------

B-----0-------------0-------------0---------4-----------4-------

G-------0-------------0-------0-2-------2-----2-----2-------2---
REPEAT THIS

D---------4-2-----------4-2-4-------4-----4-------4---4---4---4-

A-------------------------------2-----2---------2---------------

E-0-------------0-----------------------------------------------


  A chord diagramC majorC                             G*

E-0---------------0-------0-2-3----7-----7-7--------------------

B---3-1-----0-1-3-----1-3-------10-----------10-10-8------------

G-------0-2---------------------7----7--------------------------

D---------------------------------------------------------------

A-3-------------------------------------------------------------

E---------------------------------------------------------------


  F*                B*

E-7-5-5-------5-7-8-7-------------------------------------------

B---------6-8-------7-------------------------------------------

G-5-----------------8-9-8-9-8-6---8-9-8-6-----------------------

D-------------------------------9---------9---------------------

A---------------------------------------------------------------

E---------------------------------------------------------------


  A chord diagramE minorEm                            B7sus           A chord diagramB7B7

E-2-0-----------2-0---------------------------------------------

B-----0-------------0-------------0---------4-----------4-------

G-------0-------------0-------0-2-------2-----2-----2-------2---
REPEAT THIS

D---------4-2-----------4-2-4-------4-----4-------4---4---4---4-

A-------------------------------2-----2---------2---------------

E-0-------------0-----------------------------------------------


  A chord diagramC majorC                 A chord diagramC7C7        A chord diagramG+G

E---------------------------------------------------------------

B-------------------------------0---0-0-------------------------

G---------------------------0-2---------2-2-0-------------------

D-2-0-----------0-2---0-2-4-------0-----------------------------

A-3---3---0-2-3-----3-------------------------------------------

E-------3---------------------3---------------------------------


  A chord diagramFF               A chord diagramBB

E---------------------------------------------------------------

B-0-----------0-1-----------------------------------------------

G---2-2---0-2---------------------------------------------------

D-------3---------1-2-1---1-----1-2-1---------------------------

A-----------------2-----4---4-2-------4-2-----------------------

E-1-------------------------------------------------------------


  A chord diagramE minorEm                            B7sus           A chord diagramB7B7

E-2-0-----------2-0---------------------------------------------

B-----0-------------0-------------0---------4-----------4-------

G-------0-------------0-------0-2-------2-----2-----2-------2---
REPEAT THIS

D---------4-2-----------4-2-4-------4-----4-------4---4---4---4-

A-------------------------------2-----2---------2---------------

E-0-------------0-----------------------------------------------



  A chord diagramC majorC                             A chord diagramE minorEm                 A chord diagramA minorAm    A chord diagramB minorBm       A chord diagramE minorEm
E-0---------------0-------0-2-3-5-7-0---77---------7-55----55-332-2-00---

B---3-1-----0-1-3-----1-3------------------1010-8------------------------

G-------0-2--------------------------------------------------------------

D------------------------------------------------------------------------

A-3------------------------------------------------0-----2---------------

E-------------------------------0---------------------------------0------


  A chord diagramE minorEm       A chord diagramA minorAm      A chord diagramB minorBm         A chord diagramE minorEm

E-77-------7-55------55-332---2-00~W--

B----10108---------------------------

G------------------------------------ REPEAT THIS

D------------------------------------

A----------0-------2-----------------

E-0---------------------------0------


FINAL:


  A chord diagramFF                      A chord diagramA minorAm                A chord diagramA augmentedA


E-0---0-3----0---0-3-----0-------0---------0-------0-------

B---3----------3---------------1---1-------------2--2------

G---------2----------2-------2-------2---------2------2---- REPEAT
THIS

D--------------------------2-----------2-----2----------2--

A------------------------0-----------------0---------------

E-1----------1---------------------------------------------


  A chord diagramFF                      A chord diagramC majorC


E-0---0-3----0---0-3-----0---0-3----0---0-3----------------

B---3----------3-----------3----------3--------------------

G---------2----------2-----------0----------0--------------

D----------------------------------------------------------

A------------------------3----------3----------------------

E-1----------1---------------------------------------------
  A chord diagramF#F#                    A chord diagramBB        B*
E-0-2-0-6----0-2-0-6--------------7-5-7-11-7-------------

B-----------------------0---0-4--7-----------------------

G---------3----------3----2------8-----------------------

D----------------------------------------------------------

A-----------------------2----------------------------------

E-2----------2---------------------------------------------

    A chord diagramE minorEm                            B7sus           A chord diagramB7B7
E-2-0-----------2-0---------------------------------------------

B-----0-------------0-------------0---------4-----------4-------

G-------0-------------0-------0-2-------2-----2-----2-------2---
SEVERAL TIMES~E

D---------4-2-----------4-2-4-------4-----4-------4---4---4---4-

A-------------------------------2-----2---------2---------------

E-0-------------0-----------------------------------------------

Almost there ...

Sign in to get your own page with links to favourite songs and more. You are just one click away...

Login with Facebook Login with Google