Log in

One click and you are in

Login with Facebook Login with Google

Why sign up and log in

Guitar Tabs Explorer
Alanis Morissette chords for No pressure over cappucinos

No Pressure Over Cappucinos chords by Alanis Morissette

Alanis Morissette chords for No pressure over cappucinos

Guitar chords

Alanis Morissette
No Pressure Over Cappuccinos
MTV Unplugged

Acoustic guitar

Riff1
e----0----0----0----0----
B----0----0----0----0----
G----9----8----6----8----
D----9----9----7----9----
A----7----7---------7----
E----x----7----x----7----
e----0--------------0-----0----0----
B----0--------------0-----0----0----
G----9--------------8-----6----8----		...for all the verses...
D----9--------------9-----7----9----
A----7--------------7-----0----7----
E----0--------------7-----x----7----
  And you're like ....


Riff2
e-------------0----------------------------------------------------------------
B-------------0----------------------------------------------------------------
G-------------6----------------------------------------------------------------
D-------------7----------------------------------------------------------------
A-------------7----------------------------------------------------------------
E-------------5----------------------------------------------------------------
     Well you may never be .....


Riff2
e-------------0----------------------------------0------------------------------
B-------------0----------------------------------0------------------------------
G-------------2----------------------------------4------------------------------
D-------------2----------------------------------4------------------------------
A-------------x----------------------------------x------------------------------
E-------------2----------------------------------4------------------------------
	You will learn ....

Riff3
e-------0----0----0------
B-------0----0----0------
G-------6----2----8------	X2
D-------7----2----9------
A-------7----x----9------
E-------5----2----7------


E-mail me if you have any questions or comments at all.

Mattia Tognin

mattiatognin@libero.it

Almost there ...

Sign in to get your own page with links to favourite songs and more. You are just one click away...

Login with Facebook Login with Google