Log in

One click and you are in

Login with Facebook Login with Google

Why sign up and log in

Guitar Tabs Explorer
Alanis Morissette bass tabs for Ironic (Ver. 2)

Bass tabs with lyrics

Standard tuning (EADG)

LEGEND:
r = rest
/ = slide up
\ = slide down
h = hammer on
p = pull off
X = muted strike
a = acciaccatura (appears above bar)
(rit.) = ritardando (appears above bar)

INTRO:

G |---------------------------------|---------------------------------|
D |-14------------------------------|-16------------------------------|
A |---------------------------------|---------------------------------|
E |---------------------------------|---------------------------------|
    1   &   2   &   3   &   4   &     1   &   2   &   3   &   4   &

G |---------------------------------|----------------------------------|
D |-14------------------------------|-14----14----14-------------------|
A |---------------------------------|----------------------------------|
E |---------------------------------|----------------------------------|
    1   &   2   &   3   &   4   &     1   &    2   &   3   &   4   &


VERSE 1:

G |---------------------------------|---------------------------------|
D |-8-------r---9---------------r---|-8-------r---6---------------r---|
A |---------------------------------|---------------------------------|
E |---------------------------------|---------------------------------|
    1   &   2   &   3   &   4   &     1   &   2   &   3   &   4   &

G |---------------------------------|---------------------------------|
D |-8-------r---9---------------r---|-8---------\-6---------------r---|
A |---------------------------------|---------------------------------|
E |---------------------------------|---------------------------------|
    1   &   2   &   3   &   4   &     1   &   2   &   3   &   4   &

G |---------------------------------|---------------------------------|
D |-8-------r---9---------------r---|-8-------r---6---------------r---|
A |---------------------------------|---------------------------------|
E |---------------------------------|---------------------------------|
    1   &   2   &   3   &   4   &     1   &   2   &   3   &   4   &

G |---------------------------------|---------------------------------|
D |-8-------r---9-------------------|-8-----------6-------------------|
A |---------------------------------|---------------------------------|
E |---------------------------------|---------------------------------|
    1   &   2   &   3   &   4   &     1   &   2   &   3   &   4   &

G |---------------------------------|---------------------------------|
D |-8-------r---9---------------r---|-8-------r---6-------------------|
A |---------------------------------|------------------------/11----\-|
E |---------------------------------|---------------------------------|
    1   &   2   &   3   &   4   &     1   &   2   &   3   &   4   &


CHORUS 1:

G |---------------------------------|---------------------------------|
D |---------------------------------|---------------------------------|
A |-------------2-----1-2-------2-2-|---------------------------------|
E |-2-----2-------------------------|-2-----2-----4-----2-4-------4-4-|
    1   &   2   &   3   &   4   &     1   &   2   &   3   &   4   &

G |---------------------------------|---------------------------------|
D |---------------------------------|---------------------------------|
A |-------------2-----1-2-------2-2-|---------------------------------|
E |-2-----2-------------------------|-2-----2-----4-----2-4-------4-4-|
    1   &   2   &   3   &   4   &     1   &   2   &   3   &   4   &

G |---------------------------------|---------------------------------|
D |---------------------------------|---------------------------------|
A |-------------2-----1-2-------2-2-|---------------------------------|
E |-2-----2-------------------------|-2-----2-----4-----2-4-------4-2-|
    1   &   2   &   3   &   4   &     1   &   2   &   3   &   4   &

G |---------------------------------|-------------------4-4p3---------|
D |---------------------------------|-------------------------4-------|
A |------------------------/7-----\-|---------------------------4-2---|
E |-5---4---2---0-------0-----------|-2-----2-----2-------------------|
    1   &   2   &   3   &   4   &     1   &   2   &   3   &   4   &


VERSE 2:

G |---------------------------------|---------------------------------|
D |---------------------------------|---------------------------------|
A |-1-----1-----2-------2-------2h4-|-1-----1-------------------------|
E |---------------------------------|-------------4-----------4---2-4-|
    1   &   2   &   3   &   4   &     1   &   2   &   3   &   4   &

                                                              a
G |---------------------------------|----------------------------------|
D |---------------------------------|----------------------------------|
A |-1-----1-----2-------2-------4-2-|-1-----1-------------2-4-4/6--4-2-|
E |---------------------------------|-------------4--------------------|
    1   &   2   &   3   &   4   &     1   &   2   &   3   &    4   &

G |---------------------------------|---------------------------------|
D |---------------------------------|---------------------------------|
A |-1-----1-----2-------2-2-r---2---|-1-----1---------------------X-4-|
E |---------------------------------|-------------4-------4-2-4-4-----|
    1   &   2   &   3   &   4   &     1   &   2   &   3   &   4   &

G |---------------------------------|---------------------------------|
D |---------------------------------|---------------------------------|
A |-1-----1-----2-------2-2-r---4-2-|-1-----1-------------------------|
E |---------------------------------|-------------4-------X-2-4-----/-|
    1   &   2   &   3   &   4   &     1   &   2   &   3   &   4   &

G |----------------------------------|---------------------------------|
D |-8-----------9---------------11-9-|-8-----------6-------------------|
A |----------------------------------|-------------------------/11---\-|
E |----------------------------------|---------------------------------|
    1   &   2   &   3   &   4   &      1   &   2   &   3   &   4   &


CHORUS 2:

G |---------------------------------|---------------------------------|
D |---------------------------------|---------------------------------|
A |-------------2-----1-2-------2-2-|---------------------------------|
E |-2-----2-------------------------|-2-----2-----4-----2-4-------4-4-|
    1   &   2   &   3   &   4   &     1   &   2   &   3   &   4   &

G |---------------------------------|---------------------------------|
D |---------------------------------|---------------------------------|
A |-------------2-----1-2-------2-2-|---------------------------------|
E |-2-----2-------------------------|-2-----2-----4-----2-4-------4-4-|
    1   &   2   &   3   &   4   &     1   &   2   &   3   &   4   &

G |---------------------------------|---------------------------------|
D |---------------------------------|---------------------------------|
A |-------------2-----1-2-------2-2-|---------------------------------|
E |-2-----2-------------------------|-2-----2-----4-----2-4-----2-4---|
    1   &   2   &   3   &   4   &     1   &   2   &   3   &   4   &

G |---------------------------------|---------------------------------|
D |---------------------------------|---------4-------4---------------|
A |------------------------/7-----\-|-------4-------4-------4---------|
E |-5---4---2---0-------0-----------|-2-----------2-----------2---/---|
    1   &   2   &   3   &   4   &     1   &   2   &   3   &   4   &


BRIDGE:

G |---------------------------------|---------------------------------|
D |---------------------------------|---------------------------------|
A |-7-----7-----7-------7---------X-|-9-----9-----9-------9---------X-|
E |---------------------------------|---------------------------------|
    1   &   2   &   3   &   4   &     1   &   2   &   3   &   4   &

                       a               a
G |----------------------------------|-----------------------------------|
D |----------------------------9-----|-----------------------------------|
A |-7-----7-----7------9/11----------|-11\9----9-----9-------9-----------|
E |----------------------------------|-------------------------------7-9-|
    1   &   2   &   3   &    4   &     1     &   2   &   3   &   4   &

G |---------------------------------|----------------------------------|
D |---------------------------------|----------------------------------|
A |-7-----7-------7-----7-----------|-9-----9-----9-------9/11-r-9-----|
E |---------------------------------|----------------------------------|
    1   &   2   &   3   &   4   &     1   &   2   &   3   &    4   &

G |----------------------------------|---------------------------------|
D |----------------------------------|-9-----8-------------------------|
A |-7-----7-----7-------7-----/-9h11-|-------------9-------------------|
E |----------------------------------|---------------------7-----------|
    1   &   2   &   3   &   4   &      1   &   2   &   3   &   4   &


VERSE 3:
              (Rest x7)               6/4
G |---------------------------------||-------------------------------------------------|
D |---------------------------------||-------------------------------------------------|
A |---------------------------------||-------------------------------------------------|
E |-r-------------------------------||-r-----------------------------------------------|
    1   &   2   &   3   &   4   &      1   &   2   &   3   &   4   &   5   &   6   &


PRE-CHORUS:
   4/4
G |---------------------------------|---------------------------------|
D |-8-------r---9-------------------|-8-------r---6---------------r---|
A |---------------------------------|---------------------------------|
E |---------------------------------|---------------------------------|
    1   &   2   &   3   &   4   &     1   &   2   &   3   &   4   &

G |---------------------------------|---------------------------------|
D |-8-------r---9---------------r---|-8-------r---6-------------------|
A |---------------------------------|------------------------/11----\-|
E |---------------------------------|---------------------------------|
    1   &   2   &   3   &   4   &     1   &   2   &   3   &   4   &


CHORUS 3:

G |---------------------------------|---------------------------------|
D |---------------------------------|---------------------------------|
A |-------------2-----1-2-------2-2-|---------------------------------|
E |-2-----2-------------------------|-2-----2-----4-----2-4-------4-4-|
    1   &   2   &   3   &   4   &     1   &   2   &   3   &   4   &

G |---------------------------------|---------------------------------|
D |---------------------------------|---------------------------------|
A |-------------2-----1-2-------2-2-|---------------------------------|
E |-2-----2-------------------------|-2-----2-----4-----2-4-------4-4-|
    1   &   2   &   3   &   4   &     1   &   2   &   3   &   4   &

G |---------------------------------|---------------------------------|
D |---------------------------------|---------------------------------|
A |-------------2-----1-2-------2-2-|---------------------------------|
E |-2-----2-------------------------|-2-----2-----4-----2-4---4-0-2-4-|
    1   &   2   &   3   &   4   &     1   &   2   &   3   &   4   &

G |---------------------------------|---------------------------------|
D |---------------------------------|-------------4-----------4---/---|
A |------------------------/7-----\-|-----------4-------4---4---------|
E |-5---4---2---0-------0-----------|-2-------2-----2-----2-----------|
    1   &   2   &   3   &   4   &     1   &   2   &   3   &   4   &


OUTRO:

G |-----------------------------------|-----------------------------------|
D |-14----------------------16h18-----|-16----------------------r---------|
A |-----------------------------------|-----------------------------14h16-|
E |-----------------------------------|-----------------------------------|
    1   &   2   &   3   &   4     &     1   &   2   &   3   &   4   &

G |-------------------------------------|----------------------------------|
D |-14------------------16h18----16h18--|-16------------------r-----16h18--|
A |-------------------------------------|----------------------------------|
E |-------------------------------------|----------------------------------|
    1   &   2   &   3   &     4     &     1   &   2   &   3   &   4    &

                      a                 a
G |----------------------------16-----|-------------------------------------|
D |-14----------------16/18-----------|-18\16-------------------------------|
A |-----------------------------------|---------------------14h16-r-14h16-r-|
E |-----------------------------------|-------------------------------------|
    1   &   2   &   3   &    4    &     1   &   2   &   3   &     4    &

 (rit.; refer to song for timing):
                                                          a
G |---------------------------------|------------------------------------|
D |-14------------------------------|-r-----------14--/16----------------|
A |---------------------------------|---------------------14/16----------|
E |---------------------------------|------------------------------------|
    1   &   2   &   3   &   4   &     1   &   2   &   3     &    4   &

G |---------------------------------|---------------------------------|
D |---------------------------------|---------------------------------|
A |\14------------------------------|---------------------------------|
E |-----------------12--------------|(12)-----------------------------|
    1   &   2   &   3   &   4   &     1   &   2   &   3   &   4   &

Other versions of Ironic

IronicBass tabs

Almost there ...

Sign in to get your own page with links to favourite songs and more. You are just one click away...

Login with Facebook Login with Google