GuitarTabsExplorer icon
GuitarTabsExplorer icon

Log in

Songbook

  • Log in to add and see bookmarks

Last visited songs

    No songs visited yet...

Hands Clean by Alanis Morissette

Chords with lyrics

Artist: Alanis Morissette
Title: Hands Clean
Album: Under Rug Swept
Transcribed by: Seb Nai

This is my interpretation of yet another wonderful Alanis song, from=20
the outstanding "album under rug swept." It is really easy to play,=20
so get going.=20

Intro/Verse

  Chord diagramC majorC      Chord diagramD MajorD    Chord diagramB minorBm     =20
E----------------------------------0--------------------------------
B--------1--------2~~--------3--------3~~---------------------------
G-----------0-------------------4-----------------------------------
D-----2--------0----------4-----------------------------------------
A--3-------------------2--------------------------------------------
E-------------------------------------------------------------------

Explanation of
~~ Let Ring


Chorus: Strummed=20

Chord diagramC majorC  Chord diagramD MajorD    Chord diagramB minorBm    Chord diagramC majorC
Oh--Oh this Could be Messy  [etc]

Bridge: Strummed

Chord diagramE minorEm        Chord diagramC majorC        Chord diagramG+G          Chord diagramD MajorD
What Part of our history is rein-vented and under rug swept [etc]

Chords:

   Chord diagramC majorC   Chord diagramD MajorD  Chord diagramB minorBm  Chord diagramE minorEm  Chord diagramG+G
E----0-----2----2-----0----3----------------------------------------
B----1-----3----3-----0----3----------------------------------------
G----0-----2----4-----0----0----------------------------------------
D----2-----0----4-----2----0----------------------------------------
A----3-----x----2-----2----2----------------------------------------
E----X-----x----2-----0----3----------------------------------------

Other versions of Hands Clean

Alternative guitar chords and tabs for Hands Clean by Alanis Morissette

VersionType
Hands cleanTabs

[ Privacy | About us ]

Welcome to the guitar community

Why join and log in?
- Get songbook with favourite songs
- Get custom made front page
- Submit chords and tabs
- Submit guitar-cover videos
- Get a lot of thumbs up for your work

Songbook

Last visited songs

Site
Home
Search
Community
Submit chords

Video

No video for this page. Check out how you can submit guitar-cover videos here

Search tabs and chords

Browse by artist

A B C D E F G H I J K L M N O P Q R S T U V W X Y Z #


Menu

Search

Video

Bookmark

Login