Log in

One click and you are in

Login with Facebook Login with Google

Why sign up and log in

Guitar Tabs Explorer
Gaby Moreno guitar tabs for Parks and recreation

Guitar tabs

-------------------------------------------------------------------------------
                        Parks and Recreation Theme Song
-------------------------------------------------------------------------------
Tabbed by:      Daniel Leone

Written by:     Gaby Moreno and Vincent Jones

Tuning:         Standard

e|------------------|------------------|------------------|------------------|
B|------------------|---10-----10------|------------------|------------------|
G|----9------9------|---10-----10------|----9------9------|--------9---------|
D|---10-----10------|---10-----10------|---10-----10------|----12---12-10----|
A|---10-----10------|-8----------------|---10-----10------|-10------------10-|
E|-8----------------|------------------|-8----------------|------------------|

e|------------------|------------------|------------------|------------------|
B|------------------|------------------|------------------|------------------|
G|-----9------------|---10----10-9-7-9-|----9--9----------|------------------|
D|----10--9-7----10-|---10-------------|---10----12-10-12-|---12-12-10-9-10--|
A|----10------10----|----8-------------|---10-------------|---10-------------|
E|-8----------------|------------------|------------------|------------------|

e|------------------|------------------|------------------|------------------|
B|------------------|---10-------------|------------------|------------------|
G|-----9------------|---10----10-9-7-9-|----9--9----------|------------------|
D|----10--9-7----10-|---10-------------|---10----12-10----|-------------9----|
A|----10------10----|------------------|---10----------11-|---11--11-12---12-|
E|------------------|------------------|------------------|----0-------------|

e|------------------|------------------|------------------|------------------|
B|------------------|------------------|------------------|-10-8-------------|
G|------------------|------------------|----------7-9-10--|-------10---9---7-|
D|---10------9-10---|---10--------7----|---7-9-10---------|------------------|
A|----0---12------8-|----8---8-10------|-10---------------|------------------|
E|------------------|------------------|------------------|------------------|

e|-7-------7--------|-5-------5--------|-3-------3--------|-1-------1--------|
B|-8-------8--------|-6-------6--------|-5-------5--------|-3-------3--------|
G|-7-------7--------|-5-------5--------|-4-------4--------|-2-------2--------|
D|------------------|------------------|------------------|------------------|
A|------------------|------------------|------------------|------------------|
E|------------------|------------------|------------------|------------------|

e|------------------|------------------|------------------|------------------|
B|------------------|------------------|------------------|------------------|
G|-----9------------|---10--9----------|------------------|------------------|
D|----10--9-7----10-|---10----12-10----|-------------9----|---10------9-10---|
A|----10------10----|----8----------11-|---11--11-12---12-|----0---12------8-|
E|-8----------------|------------------|---0--------------|------------------|

e|------------------|------------------|------------------|------------------|
B|------------------|------------------|------------------|------------------|
G|------------------|------------------|---9--------------|------------------|
D|---10--------7----|----9------7-9----|---9------------7-|---7--7-9-10------|
A|---8---8-10----10-|---10---10-----7--|---7----7-8-10----|---0-----------8--|
E|------------------|------------------|------------------|------------------|

e|------------------|--8-------3-------|--8---------------||
B|------------------|--8-------3-------|--8---------------||
G|------------------|--9-------4-------|--9---------------||
D|---7--------7-----|-10-------5-------|-10---------------||
A|---8---8-10-------|-10-------5-------|-10---------------||
E|------------------|--8-------3-------|--8---------------||

Almost there ...

Sign in to get your own page with links to favourite songs and more. You are just one click away...

Login with Facebook Login with Google