Guitar Tabs Explorer
Kevin Morby bass tabs for Ive been to the mountain

I've Been To The Mountain bass tab


5 / 5 [1 vote]

I've Been To The Mountain bass tab by Kevin Morby

Bass tabs

Print

Intro:
G|--------|--------|--------|--------|
D|--------|--------|--------|--------|
A|--------|--------|--------|--------|
E|--------|--------|--------|--------|

Verse 1:
                                       *   *      *   *
G|--------|--------|--------|--------||--------------------||
D|--------|--------|--------|--------||8-8----8--------6---||x4
A|--------|--------|--------|--------||-----8---8-6-6----8-||
E|--------|--------|--------|--------||--------------------||

Chorus 1:
   *   *      *   *       *   *      *    *            *   *      *   *
G||----------------------|-------6---8-8--8-6-----||  |------------------|
D||4-4----4-6-8-8----8---|-----8---8----------8-6-||x3|4-4----4-6-8-8----|
A||-----6----------8---8-|6-6---------------------||  |-----6----------8-|
E||----------------------|------------------------||  |------------------|

Verse 2:
   *   *      *   *
G||--------------------||
D||8-8----8--------6---||x8
A||-----8---8-6-6----8-||
E||--------------------||

Chorus 2:
  *   *      *   *       *   *      *     *
G|----------------------|-------6---8-8-6-8-6-----|
D|4-4----4-6-8-8----8---|-----8---8-----------8-6-|
A|-----6----------8---8-|6-6----------------------|
E|----------------------|-------------------------|

  *   *      *   *       *   *      *     *
G|----------------------|-------6---8-8-6-8-6-----|
D|4-4----4-6-8-8----8---|-----8---8-----------8-6-|
A|-----6----------8---8-|6-6----------------------|
E|----------------------|-------------------------|

  *   *      *   *      *   *      *   *       *   *      *   *
G|----------------------|-------6---6-8-6-----|------------------|
D|4-4----4-6-8-8----8---|-----8---8-------8-6-|4-4----4-6-8-8----|
A|-----6----------8---8-|6-6------------------|-----6----------8-|
E|----------------------|---------------------|------------------|

Guitar solo:
   *   *      *   *
G||--------------------||
D||8-8----8--------6---||x8
A||-----8---8-6-6----8-||
E||--------------------||

Chorus 3:
  *   *      *   *       *   *      *    *
G|----------------------|-------6---8-8--8-6-----|
D|4-4----4-6-8-8----8---|-----8---8----------8-6-|
A|-----6----------8---8-|6-6---------------------|
E|----------------------|------------------------|

  *   *      *   *       *   *      *   *
G|----------------------|-------6---8-6-8-6-----|
D|4-4----4-6-8-8----8---|-----8---8---------8-6-|
A|-----6----------8---8-|6-6--------------------|
E|----------------------|-----------------------|

  *   *      *   *       *   *      *   *
G|----------------------|-------6---8-6-8-6-----|
D|4-4----4-6-8-8----8---|-----8---8---------8-6-|
A|-----6----------8---8-|6-6--------------------|
E|----------------------|-----------------------|

  *   *      *   *       *   *      *    *
G|----------------------|-------6-8-8--6-8-6-----|
D|4-4----4-6-8-8----8---|-----8--------------8-6-|
A|-----6----------8---8-|6-6---------------------|
E|----------------------|------------------------|

  *   *      *   *       *   *      *   *
G|----------------------|-------6---8-8-8-6-----|
D|4-4----4-6-8-8----8---|-----8---8---------8-6-|
A|-----6----------8---8-|6-6--------------------|
E|----------------------|-----------------------|

  *   *      *   *       *   *      *    *
G|----------------------|-------6---8--8-6-----|
D|4-4----4-6-8-8----8---|-----8---8--------8-6-|
A|-----6----------8---8-|6-6-------------------|
E|----------------------|----------------------|

  *   *      *   *       *   *      *   *      *   *      *   *
G|----------------------|-------6---6-8-6-----|------------------|
D|4-4----4-6-8-8----8---|-----8---8-------8-6-|4-4----4-6-8-8----|
A|-----6----------8---8-|6-6------------------|-----6----------8-|
E|----------------------|---------------------|------------------|

Outro:
   *   *      *   *         * * * *  * * * *  * * * *  * * * *  * * * *
G||--------------------||  |--------|--------|--------|--------|--------||
D||8-8----8--------6---||x8|8-------|--------|--------|--------|--------||
A||-----8---8-6-6----8-||  |--------|--------|--------|--------|--------||
E||--------------------||  |--------|--------|--------|--------|--------||