Log in

One click and you are in

Login with Facebook Login with Google

Why sign up and log in

Guitar Tabs Explorer
Morbid Angel tabs for Summoning

Guitar tabs with lyrics

Morbid Angel - Summoning


For Questions, Comments, Newest Version, or Corrections contact
Bobby Rafuse: at metal_music69@hotmail.com

.  - palm mute          /  - slide up to
  - slide down to      ~  - vibrato
h  - hammer on          b  - bend
p  - pull off            Suffixes for bend
                          ph - pinch harmonic
                           f - full bend    h - half bend
*  - see comment           r - release      t - tap bend
X  - percussion mute       ~ - vibrato bend
@  - slight palm mute     () - ghost note, sustained note

Tune Gtr to A chord diagramBb majorBb (This song is played on a 7 string tabbed on a 6 string)

SUMMONING REDEMPTION


Intro                                                           1tx
|------------------------------------------------------------------|
|------------------------------------------------------------------|
|------------------------------------------------------------------|
|------------------------------------------------------------------|
|---------222211111111----1111------------222211111111----1--5--3--|
|-00001111------------3333----333300001111------------3333---3--1--|
pm							                   .  .


Riff A chord diagramA augmentedA                                                          8tx
|------------------------------------------------------------------|
|------------------------------------------------------------------|
|------------------------------------------------------------------|
|------------------------------------------------------------------|  Gtr.
|---------22--11--11------11--------------22--11--11------1--5--3--|   1
|-00--11--------------33------33--00--11--------------33-----3--1--|
pm..  ..  ..  ..  ..  ..  ..  ..  ..  ..  ..  ..  ..  ..  .  .  .
|------------------------------------------------------------------|
|------------------------------------------------------------------|
|------------------------------------------------------------------|
|------------------------------------------------------------------|  Gtr.
|---------222211111111----1111------------222211111111----1--5--3--|   2
|-00001111------------3333----333300001111------------3333---3--1--|
pm							     .  .


Riff B1
|--------------------------------------------|
|--------------------------------------------|
|---------------------/7~--------------------|
|-3~----3---2-----2----------6~----6~----6~--|
|---------------------/5~----------5~----5~--|
|-1~----1---0-----0----------4~----4~----4~--|


Riff B2
|--------------------------------------------|
|--------------------------------------------|
|---------------------/7~----------7~----7~--|
|-3~----3---2-----2----------6~----6~----6~--|
|---------------------/5~--------------------|
|-1~----1---0-----0----------4~----4~----4~--|


Riff A chord diagramA augmentedA 4tx

Riff B1

RIff B2

Riff A chord diagramA augmentedA 6tx


(Drums)


Riff A chord diagramC majorC                      10tx
|-------------------------------|
|-------------------------------|
|-------------------------------|
|-------------------------------|
|-5--5--2--5--2-2--5-3-2--5--2--|
|-3--3--0--3--0-0--3-1-0--3--0--|
pm.  .  .     . .


Riff A chord diagramD MajorD
|---------------------------------------------------|
|---------------------------------------------------|
|---------------------------------------------------|
|---------------------------------------------------|
|---------------------------------33333333----------|
|-00000000111111111111111122222222---------11111111-|
|                                           4tx
|----------------------------------------------|
|----------------------------------------------|
|----------------------------------------------|
|---------------6----4~------------------------|
|-----------------6--4~---3333--------3333-----|
|-0000000000004------2~-------22222222----2222-|


Riff A chord diagramC majorC 10tx

Riff A chord diagramD MajorD 8tx

Riff A chord diagramA augmentedA 8tx

Riff A chord diagramBB 2tx

Riff A chord diagramA augmentedA 8tx
End.

Almost there ...

Sign in to get your own page with links to favourite songs and more. You are just one click away...

Login with Facebook Login with Google