Log in

One click and you are in

Login with Facebook Login with Google

Why sign up and log in

Guitar Tabs Explorer
Morbid Angel tabs for Secured limitations

Guitar tabs with lyrics

Key:
/=forward slide
\=backward slide
h=hammer on
p=pull off
~=vibrato
Pm=Palm mute
ah=artifical harmonic
x=muffled
b=bend to
r=release from
pb=prebend

I'm not really familiar with Morbid Angel, I haven't heard many songs from them.
So, I'm not sure of what tuning or chords Azagthoth is using in this song.
I also don't have a seven string guitar like he does.
So, in other words, this tab is not that accurate.  It's just to give you an idea
of how it goes.

I think the tuning is 3 steps down for a six-string, standard for a seven-string
(at least it sounds like it to me). the tab is for a seven string. if you want
to play it on a detuned six-string, just ignore the topmost line of the tab.

there's 3 riffs and 2 fill in the song.
here's the song structure:

A chord diagramA augmentedA x 19 times
A chord diagramBB x 2 times
A chord diagramA augmentedA x 8 times
A chord diagramBB x 2 times
A chord diagramA augmentedA x 8 times
fill 1 x 1 time
A chord diagramC majorC x 8 times
fill 2 x 1 time
A chord diagramC majorC x 1 time
fill 2 x 1 time
A chord diagramC majorC x 6 times
fill 2 x 1 time
A chord diagramC majorC x 1 time
fill 2 x 1 time
A chord diagramC majorC x 1 time
fill 2 x 1 time
A chord diagramC majorC x 17 times

A: intro and main riff (he plays variations of this throughout the song)
|---------------------------------------------------------|
|---------------------------------------------------------|
|---------------------------------------------------------|
|---------------------------------------------------------|
|---------------------------------------------------------|
|--5---4-4-4-4-4-4-4--4-----2/5--5-5-5---5/7--7-7-7---4---|
|--3---2-2-2-2-2-2-2--2-----3/6--6-6-6---6/8--8-8-8---5---|
                            |
                            *he plays this part with a single guitar in the intro
                            *(and in the verse stanzas) 2 times, then doubles it with
                            *a 2nd guitar later


B:                 "you scarred our existence"
|------------------------------------------------------------------|
|------------------------------------------------------------------|
|------------------------------------------------------------------|
|------------------------------------------------------------------|
|------------------------------------------------------------------|
|-------------------------5---5---6-6-6-6-6-6--6---6-6-6-6-6-6--6--|
|--5-5-5-5-5-5--5-----------6-----4-4-4-4-4-4--4---3-3-3-3-3-3--3--|


fill 1
|-------|
|-------|
|-------|
|-------|
|-------|
|-7-6---|
|-5-4---|


C: outro riff.
 he has the same picking pattern throughout,listen to the song to figure it out.
|--------------|
|--------------|
|--------------|
|--------------|
|--------------|
|--------------|
|0--1---5---4--|


fill 2
|------------------------------|
|------------------------------|
|------------------------------|
|------------------------------|
|------------------------------|
|------------------------------|
|---5--5--5-5-----1--1--1-1----|

Almost there ...

Sign in to get your own page with links to favourite songs and more. You are just one click away...

Login with Facebook Login with Google