Log in

One click and you are in

Login with Facebook Login with Google

Why sign up and log in

Guitar Tabs Explorer
Moore Joseph Patrick bass tabs for Datz it

Bass tabs with lyrics

Hey,
Here is a tab for your archive.


If you would like artist MP3, CD cover:please visit
http://www.JosephPatrickMoore.com

Datz It
by Joseph Patrick Moore

Below is bass Tab. Jimmy Herring is guest guitarist on this track.
There is a smoking guitar solo, somebody should tab out.

Genre: Funk-Rock/Instrumental Jazz, jamband
Description: Jazz groove with tight bass and soaring guitar leads, spiced
with funky keys and horns.

Datz It by Joseph Patrick Moore
Released on "SoulCloud"
©2000 Joseph Patrick Moore

This is a great tune to practice staying in the
pocket, holding down the groove, and to
sharpen those bass licks!


Bass Tab:
Standard Tuning: EADG


Verse:

G--|----------------|----------------|
D--|----------------|----------------|
A--|----------------|0-0-----0-0-----| (repeat)
E--|0-0-----3-3-----|----------------|

That's the basic groove. Here are a few licks
thrown in at the end of that second measure...

G--|----------------|
D--|-------2-0-2-0--|
A--|----------------|
E--|----------------|

G--|---------2-0----|
D--|----------------|
A--|----------------|
E--|----------------|

G--|-------0--------|
D--|------------0-2-|
A--|----------------|
E--|----------------|

G--|----------------|
D--|-------2-0------|
A--|-----------2----|
E--|----------------|

G--|----------0--2-0|
D--|--------0--0----|
A--|0-2-3-4---------|
E--|----------------|


Chorus/Transition:

G--|----------------|----------------|
D--|----------------|----------------|
A--|3-3-----3-3-----|----------------|
E--|----------------|4-4-----4-4-----|


G--|----------------|----------------|
D--|----------------|-------5--675---|
A--|----------------|-----57------7\-|
E--|3-3-----3-3-----|3-567-----------|

Almost there ...

Sign in to get your own page with links to favourite songs and more. You are just one click away...

Login with Facebook Login with Google