Search tabs and chords

Search for song, artist or band

Log in

One click and you are in

Login with Facebook Login with Google

Why sign up and log in

Guitar Tabs Explorer
Gary Moore guitar tabs for Still got the blues (Ver. 2)

Guitar tabs

Dm chord diagramDmDm                  G chord diagramGG             Cm7 chord diagramCm7Cm7         F chord diagramFF         B7 chord diagramB7B7
e|-----0-0h1-----1---0---------------0-----0---------------------------------|
B|---3---------3-------3-----3---1-3-----------3-1-----0-1-3-----3---1-------|
G|-2---------2-----2-------0---0---------0-----------2---------2-------------|
D|-------0-------0-------0-------------2-----2-----3---------3-----3---------|
A|-----------------------------------3-----3---------------2-----2-----------|
E|---------------------3-------------------------1---------------------------|

   E chord diagramEE           Am chord diagramAmAm            Dm chord diagramDmDm                  G chord diagramGG          Cm7 chord diagramCm7Cm7
e|-------------------------0-----0-0h1-----1---3-0----------0-----0-3-0------|
B|-0-----0---0-1-----3-----1---3---------3-------0-3----1-3------------------|
G|-----1---2-------2-----0---2---------2-----2--------0---------0------------|
D|---2-----------2-----0-----------0-------0------------------2--------------|
A|-------------0-----2-----0--------------------------------3----------------|
E|-0-----0---------------------------------------3---------------------------|

   F chord diagramFF             B7 chord diagramB7B7          E chord diagramEE           Am chord diagramAmAm
e|---------------------------------------------0-----------------------------|
B|-1-----1---0-1-3-----3---1-0-----0---0-1-------1---------------------------|
G|-----2---2---------2-----------1---2-------2-----2-2-----------------------|
D|---3-------------3-----3-----2-----------2---------2---------2-------------|
A|---------------2-----2-----------------0-----0-----0-----0-3---------------|
E|-1-------------------------0-----0-----------------------------------------|

   Dm7 chord diagramDm7Dm7                     Cm7 chord diagramCm7Cm7         Fm7 chord diagramFm7Fm7         Bm7 chord diagramBm7Bm7         E chord diagramEE
e|-------1-----------1-----------0-----------0-----------1-----------0-------|
B|-----1---1-------1---1-------0---0-------1---1-------3---3-------0---0-----|
G|---2-------2---2-------2---0-------0---2-------2---2-------2---1-------1---|
D|-0-----------------------------------3-----------------------2-------------|
A|-------------------------3-----------------------2-------------------------|
E|-------------3-------------------------------------------------------------|

   Am chord diagramAmAm                   Dm7 chord diagramDm7Dm7                     Cm7 chord diagramCm7Cm7         Fm7 chord diagramFm7Fm7
e|-------------0--------------1-----------1-----------0-----------0----------|
B|-1-----3-----1------------1---1-------1---1-------0---0-------1---1--------|
G|-----2-----0------------2-------2---2-------2---0-------0---2-------2------|
D|---2-----0----------2-0-----------------------------------3----------------|
A|-0-----2-----0--0-3---------------------------3----------------------------|
E|----------------------------------3----------------------------------------|

   Bm7 chord diagramBm7Bm7                     Esus4 chord diagramEsus4Esus4       E chord diagramEE            Am chord diagramAmAm   Em chord diagramEmEm
e|-------1-----------1-------------------------------5--0-3-------0-3--------|
B|-----3---3-------3---3-----------------------------5----0------------------|
G|---2-------2---2-------2-2-2-2-2-2-2-1-------------5--------0--------------|
D|-------------------------2-2-2-2-2-2-2--------------------2----------------|
A|-2-----------2------------------------------0h3-0--------------------------|
E|-------------------------0-----0-----0--0h3-------------0-----0------------|

   Am7 chord diagramAm7Am7         D7 chord diagramD7D7        F7 chord diagramF7F7     E chord diagramEE         Am chord diagramAmAm
e|-5------------------------------------0-------0----------------------------|
B|-5-------8-5-3-------3-----3-1-3---------1------1--------------------------|
G|-5---5-------5---5-5---8~------1---1---------2----2-2----------------------|
D|---5-----------4-------7~--------2---------2--------2----------------------|
A|-0-----0-----5---------8~----------------0----------0----------------------|
E|-------------------------------0-----0-------------------------------------|

Other versions of Still Got The Blues

Still got the bluesChords
Still got the blues (Ver. 2)Chords
Still got the blues for youChords
Still got the bluesTabs

Almost there ...

Sign in to get your own page with links to favourite songs and more. You are just one click away...

Login with Facebook Login with Google