Log in

One click and you are in

Login with Facebook Login with Google

Why sign up and log in

Guitar Tabs Explorer
Gary Moore tabs for Separate ways

Guitar tabs

Separate Ways


                                                                Gary Moore

Tab by Nitro nitro@online.no


A chord diagramE MajorE||--------------------|--------------------|------------------------|
A chord diagramBB||--------------------|--------------------|------------------------|
A chord diagramG+G||--------------------|--------------------|------------------------|
A chord diagramD MajorD||--------------------|---------2----------|------------------------|
A chord diagramA augmentedA||----------------0-2-|--5-----------------|--0--2--5--2--------0-2-|
A chord diagramE MajorE||--------------------|--------------------|------------------------|


---------------------|----------------------|------7------------|
---------------------|----------------------|------7------------|
---------------------|----------------------|-------------------|
---------2-----------|----------------------|-------------------|
--5------------------|--0--2--5--2----------|-------------------|
------------------2--|----------------------|-------------------|


-----------------------|------------------------|-----------------------|
------------10---------|------------------------|-----------------------|
----------9b---9r----7-|--9/11----------------7-|--7/-9----7--6---------|
-----------------------|-------9------------9---|------------------7----|
-----------------------|------------------------|-----------------------|
-----------------------|------------------------|-----------------------|


---------------7----|----------10-7~------|--------------------|
---------------7----|---------------------|--7----7------------|
--------------------|---------------------|--7----7------------|
--------------------|---------------------|--9-----------------|
--9-----------------|---------------------|--------------------|
--------------------|---------------------|--------------------|


----------------5----|-------------------|----------10-7~------|
----------5-----5----|--7----------------|---------------------|
----------6----------|--7----------------|---------------------|
----------7---7------|--9----------------|---------------------|
---------------------|-------------------|---------------------|
---------------------|-------------------|---------------------|


------------------|---------------5----|--0----------------|
------------------|----------5----5----|--0----------------|
------------------|----------6----6----|--6----------------|
------------------|----------7---------|--7----------------|
------------------|--------------------|-------------------|
------------------|--------------------|-------------------|


------2--------0----|------------------|------------------------|
------2--------0----|------------------|------------------------|
--------------------|------------------|------------7----11--7--|
--------------------|------------------|------9--9--------------|
--------------------|------------------|------------5----9---5--|
--------------------|------------------|------7--7--------------|


--------------------|------------------|---------------------|
--------------------|------------------|--3--------3------3--|
--7/9---------------|------------------|--0--------2------0--|
--------------------|------------------|------------------4--|
--5/7---------------|------------------|---------------------|
--------------------|------------------|---------------------|


------------------|--------------------------|--------------------|
------------------|----------12/-14--12\-10--|--12----------------|
------------------|--------------------------|--------------------|
------------------|----------9/--11--9\--7---|--9-----------------|
------------------|--------------------------|--------------------|
------------------|--------------------------|--------------------|


--------------------------|-------------------|--------------------------|
----------12/-14--12\-10--|--7----------------|----------12/-14--12\-10--|
--------------------------|-------------------|--------------------------|
----------9/--11--9\--7---|-------------------|----------9/--11--9\--7---|
--------------------------|--9----------------|--------------------------|
--------------------------|-------------------|--------------------------|


--------------------|--------------------------|--------------17----15----|
--12----------------|----------12/-14--15--17--|--19----17----------------|
--------------------|--------------------------|--------------14----12----|
--9-----------------|----------9/--11--12--14--|--16----14----------------|
--------------------|--------------------------|--------------------------|
--------------------|--------------------------|--------------------------|


--14----------------|----------10-7~------|-------------------|
--------------------|---------------------|--------------7----|
--11----------------|---------------------|--------------7----|
--------------------|---------------------|-------------------|
--------------------|---------------------|-------------------|
--------------------|---------------------|-------------------|


-----------------------|---------------------|--0-------------------|
-----------------------|---------------------|--0-------------------|
-----------7--9--9b-7/-|--9/-----11~---------|--6----------------7--|
--------9--------------|---------------------|---------------7p9----|
-----------------------|---------------------|----------------------|
-----------------------|---------------------|----------------------|


-------------------|----------------------|--------------------------|
-------------------|----------3--2--------|----------12/-14--12\-10--|
-------------------|----------2-----4--2--|--------------------------|
--9~---------------|----------2-----------|----------9/--11--9\--7---|
-------------------|----------------------|--------------------------|
-------------------|----------------------|--------------------------|


--------------------|--------------------------|-------------------|
--12----------------|----------12/-14--12\-10--|--7----------------|
--------------------|--------------------------|-------------------|
--9-----------------|----------9/--11--9\--7---|-------------------|
--------------------|--------------------------|--9----------------|
--------------------|--------------------------|-------------------|


--------------------------|--------------------|--------------------------|
----------12/-14--12\-10--|--12----------------|----------12/-14--15--17--|
--------------------------|--------------------|--------------------------|
----------9/--11--9\--7---|--9-----------------|----------9/--11--12--14--|
--------------------------|--------------------|--------------------------|
--------------------------|--------------------|--------------------------|


--------------17----15----|--14----------------|------------------|
--19----17----------------|--------------------|------------------|
--------------14----12----|--11----------------|------------------|
--16----14----------------|--------------------|------------------|
--------------------------|--------------------|------------------|
--------------------------|--------------------|------------------|


------------------|--------------------------------|-------------------|
------------------|----14h17---10--14p10---10p7----|-------------------|
------------------|-----------------------------7/-|--9----------------|
------------------|--------------------------------|-------------------|
------------------|--------------------------------|-------------------|
------------------|--------------------------------|-------------------|


-------------------|-------------------|---------------------|
--0----------------|--7----------------|--9------------------|
--6----------------|--7----------------|--9------------------|
--7----------------|--9----------------|--9------------------|
-------------------|-------------------|-------------------2-|
-------------------|-------------------|-----------------5---|


---------------------|----------------------|----------------------|
---------------------|----------------------|----------------10p12-|
---------------------|----------------------|----------------------|
---------2-----------|----------------------|----------------------|
--5------------------|-----2--5--2----------|----------------------|
------------------2--|--5-------------------|----------------------|


--------------------|----------------------|--------------------7---7-10-|
--12r---------------|----------------------|------------------7---7------|
--------------------|--9r9b--------------7-|--9r-7----------9b-----------|
--------------------|------------------9---|-------9---------------------|
--------------------|----------------------|-----------------------------|
--------------------|----------------------|-----------------------------|


--7--10r--7-10--10--7~-------|--10r-------------7--|--10--7-7~------9--10--12--|
-----------------------------|---------------------|---------------------------|
-----------------------------|---------------------|---------------------------|
-----------------------------|---------------------|---------------------------|
-----------------------------|---------------------|---------------------------|
-----------------------------|---------------------|---------------------------|


--14~---12----15r-------|--14~---------------|------------12--------|
------------------------|--------------------|----------------12----|
------------------------|--------------------|----------------------|
------------------------|--------------------|----------------------|
------------------------|--------------------|----------------------|
------------------------|--------------------|----------------------|


--10------------------|----------------------|-------------------|
-----12---------------|----------------------|-------------------|
----------------------|------------7----9b---|--9~---------------|
----------------------|------9--9------------|-------------------|
----------------------|----------------------|-------------------|
----------------------|----------------------|-------------------|


------------------|---------------------|------------------|------------------|
------------------|--3--------3------3--|------------------|------------------|
------------------|--0--------2------4--|------------------|------------------|
------------------|---------------------|------------------|------------------|
------------------|---------------------|------------------|------------------|
------------------|--0--------2------3--|------------------|------------------|


--------------------------|--------------------|--------------------------|
----------12/-14--12\-10--|--12----------------|----------12/-14--12\-10--|
--------------------------|--------------------|--------------------------|
----------9/--11--9\--7---|--9-----------------|----------9/--11--9\--7---|
--------------------------|--------------------|--------------------------|
--------------------------|--------------------|--------------------------|


-------------------|--------------------------|--------------------|
--7----------------|----------12/-14--12\-10--|--12----------------|
-------------------|--------------------------|--------------------|
-------------------|----------9/--11--9\--7---|--9-----------------|
--9----------------|--------------------------|--------------------|
-------------------|--------------------------|--------------------|


--------------------------|-------------------|--------------------------|
----------12/-14--12\-10--|--7----------------|----------12/-14--12\-10--|
--------------------------|-------------------|--------------------------|
----------9/--11--9\--7---|-------------------|----------9/--11--9\--7---|
--------------------------|--9----------------|--------------------------|
--------------------------|-------------------|--------------------------|


--------------------|--------------------------|-------------------|
--12----------------|----------12/-14--12\-10--|--7----------------|
--------------------|--------------------------|-------------------|
--9-----------------|----------9/--11--9\--7---|-------------------|
--------------------|--------------------------|--9----------------|
--------------------|--------------------------|-------------------|


--------------------------|--------------------|--------------------------|
----------12/-14--12\-10--|--12----------------|----------12--14--15--17--|
--------------------------|--------------------|--------------------------|
----------9/--11--9\--7---|--9-----------------|----------9---11--12--14--|
--------------------------|--------------------|--------------------------|
--------------------------|--------------------|--------------------------|


--------------17--------|--------------------|------------------------|
--19----17--------------|--------------------|------------------------|
--------------14--------|--7------9----------|--------7b--------------|
--16----14--------------|--------------------|--7--9-----9--------7h9-|
------------------------|--------------------|------------------------|
------------------------|--------------------|------------------------|


                                                       AH AH  AH AH
---------------------|----------------------|-----------7-----------|
---------------------|----------------------|--------------7--------|
--7------9~----------|--------7-------------|-----------------7--9--|
---------------------|--7--9-----9----------|-----------------------|
------------------9--|----------------------|-----------------------|
---------------------|----------------------|--7--------------------|


AH
--7----------------||
-------------------||
-------------------||
-------------------||
-------------------||
-------------------||

Other versions of Separate Ways

Separate waysChords

Almost there ...

Sign in to get your own page with links to favourite songs and more. You are just one click away...

Login with Facebook Login with Google