Log in

One click and you are in

Login with Facebook Login with Google

Why sign up and log in

Guitar Tabs Explorer
Gary Moore bass tabs for Out in the fields

Bass tabs

On: 14/01/08
E-mail: anthonybentley@hotmail.co.uk


Intro (after the weird bongo bit):
  D
G|-----------------------------------------------------------------|
D|-----------------------------------------------------------------|
A|-5-5-5-5-5-5-5-5-5-5-5-5-5-5-5-5-5-5-5-5-5-5-5-5-5-5-5-5-5-5-5-5-|
E|-----------------------------------------------------------------|
  A#                       *     C
G|-------------------------------------------------|-------------|
D|-------------------------------------------------|-------------|
A|-------------------------------------------------|-------------|
E|-6-6-6-6-6-6-6-6-6-6-6-6-6-6-6-6-6-6-6-6-6-6-6-6-|-6-6-6-6-8-8-|

[Repeat the intro again up until the '*' mark]
Verse:
G|-----------------------------------------------------------------|
D|-----------------------------------------------------------------|
A|-5-5-5-5-5-5-5-5-5-5-5-5-5-5-5-5-5-5-5-5-5-5-5-5-5-5-5-5-5-5-5-5-|
E|-----------------------------------------------------------------|
"It doesn't matter..."


G|-----------------------------------------------------------------|
D|-----------------------------------------------------------------|
A|-----------------------------------------------------------------|
E|-6-6-6-6-6-6-6-6-6-6-6-6-6-6-6-6-6-6-6-6-6-6-6-6-6-6-6-6-6-6-6-6-|
"It makes no difference..."


G|-----------------------------------------------------------------|
D|-----------------------------------------------------------------|
A|-----------------------------------------------------------------|
E|-8-8-8-8-8-8-8-8-8-8-8-8-8-8-8-8-8-8-8-8-8-8-8-8-8-8-8-8-8-8-8-8-|
"All men are equal..."

G|----------------------------------------------------------|
D|----------------------------------------------------------|
A|----------------------------------------------------------|
E|-3-3-3-3-3-3-3-3-3-3-3-3-3-3-3-3-5-5-5-5-5-5-5-5--5-3-1-0-|
"No colour or religion..."


Chorus:
G|-----------------------------------------------------------------|
D|-----------------------------------------------------------------|
A|-5-5-5-5-5-5-5-5-8-8-8-8-----------------------------------------|
E|-------------------------6-6-6-6-8-8-8-8-8-8-8-8-8-8-8-8-8-8-8-8-|
"Out...     ...in......the.....fields"

G|-----------------------------------------------------------------|
D|-----------------------------------------------------------------|
A|-5-5-5-5-5-5-5-5-8-8-8-8-----------------------------------------|
E|-------------------------6-6-6-6-8-8-8-8-8-8-8-8-8-8-8-8-8-8-8-8-|
"Out...     ...on......the.....streets"

G|-----------------------------------------------------------------|
D|-----------------------------------------------------------------|
A|-5-5-5-5-5-5-5-5-8-8-8-8-----------------------------------------|
E|-------------------------6-6-6-6-8-8-8-8-8-8-8-8-8-8-8-8-8-8-8-8-|
"Out...     ...from....the.....skies"

G|------------------------------------|
D|------------------------------------|
A|------------------------------------|
E|-6-6-6-6-6-6-6-6-6-6-6-6-6-6-6-6-3~-|
"..day"              "Death is just a heartbeat away"

[Play Intro once - not twice]


[Verse again]


[Chorus again]

First line of the intro:
G|-----------------------------------------------------------------|
D|-----------------------------------------------------------------|
A|-5-5-5-5-5-5-5-5-5-5-5-5-5-5-5-5-5-5-5-5-5-5-5-5-5-5-5-5-5-5-5-5-|
E|-----------------------------------------------------------------|


Break:
G|----------------------------------------|
D|----------------------------------------|
A|----------------------------------------|
E|-6-6--6-6--6-6--6-6--3-3--3-3--3-3--3-3-|

G|--------------------------------------------|
D|--------------------------------------------|
A|---------------------3-3--3-3-----------3-5-|
E|-5-5--5-5--5-5--5-5-----------3-3-3-3-5-----|

[Just guitar plays]

Little run down (all the band):
G|----------|
D|----------|
A|----------|
E|-10-8-7-5-|

[Just guitar again]


Solo: Same as verse

[Repeated "Out in the fields" part]

The "Out in the fields" part is the same as the rest, but two frets up (a tone higher).


Outro:
The bass only plays the last 8 (9) notes of this little run:
G|---9-7----------------|
D|-9-----10-9-7---------|
A|--------------10----7-|
E|-----------------10---|
           "Out!"
ⓘ Bass guitar tab for 'Out In The Fields' by Gary Moore, a male hard rock artist from Belfast, Northern Ireland, UK. Gary Moore was born in 1952. He passed away in 2011. Gary Moore was known for his gritty rock/pop music.

Almost there ...

Sign in to get your own page with links to favourite songs and more. You are just one click away...

Login with Facebook Login with Google