Log in

One click and you are in

Login with Facebook Login with Google

Why sign up and log in

Guitar Tabs Explorer
Gary Moore bass tabs for Midnight blues

Bass tabs

gary_moore/midnight_blues.btab

Basstab by Jan Bjorklund, Finland;
jani_bjorklund@yahoo.se
You are welcome to request for basstabs!
Bienvenidos a pedirme transcripciones para el bajo!

TablEdited by Jan Bjorklund

Tuning : E A D G 	Time Signature: 4/4

 |    |    |    |    |    |    |    |
|--------------------------------|--------------------------------|
|------------------------1-------|--------------------------------|
|3---------------1---3-----------|3---------------1---3-----------|
|------------3-------------------|------------3-------------------|

 |    |    |    |    |    |    |    |
|--------------------------------|--------------------------------|
|------------------------1-------|--------------------------------|
|3---------------1---3-----------|3---------------1---3-----------|
|------------3-------------------|------------3-------------------|

 |    |    |    |    |    |    |    |
|--------------------------------|--------------------------------|
|------------------------1-------|--------------------------------|
|3---------------1---3-----------|3---------------1---3-----------|
|------------3-------------------|------------3-------------------|

 |    |    |    |    |    |    |    |
|--------------------------------|--------------------------------|
|------------------------1-------|--------------------------------|
|3---------------1---3-----------|3---------------1---3-----------|
|------------3-------------------|------------3-------------------|

 |    |    |    |    |    |    |    |
|--------------------------------|--------------------------------|
|------------------------1-------|----------------------------1---|
|3---------------1---3-----------|3---------------1---3-----------|
|------------3-------------------|------------3-------------------|

 |    |    |    |    |    |    |    |
|------------------------1-------|--------------------------------|
|3---------------1---3-----------|3---------------1---3-----------|
|------------3-------------------|------------3-------------------|
|--------------------------------|--------------------------------|

 |    |    |    |    |    |    |    |
|--------------------------------|--------------------------------|
|------------------------1-------|--------------------------------|
|3---------------1---3-----------|3---------------1---3-------5---|
|------------3-------------------|------------3-------------------|

 |    |    |    |    |    |    |    |
|--------------------------------|--------------------------------|
|--------------------------------|----------------------------5---|
|6-----------6---6---6-------8---|10------------------------------|
|--------------------------------|------------3---3---3-----------|

 |    |    |    |    |    |    |    |
|--------------------------------|--------------------------------|
|3-----------3---3---3-------3---|--------------------------------|
|--------------------------------|--------------------------------|
|--------------------------------|1---------------4---------------|

 |    |    |    |    |    |    |    |
|--------------------------------|--------------------------------|
|------------------------1-------|--------------------------------|
|3---------------1---3-----------|3---------------1---3-----------|
|------------3-------------------|------------3-------------------|

 |    |    |    |    |    |    |    |
|--------------------------------|--------------------------------|
|------------------------1-------|--------------------------------|
|3---------------1---3-----------|3---------------1---3-----------|
|------------3-------------------|------------3-------------------|

 |    |    |    |    |    |    |    |
|--------------------------------|--------------------------------|
|------and so it continues-------|------------------------1-------|
|-------------until--------------|3---------------1---3-----------|
|--------------------------------|------------3-------------------|

 |    |    |    |    |    |    |    |
|--------------------------------|--------------------------------|
|--------------------------------|--------------------------------|
|3---------------1---3-------3---|1-----------1---1---------------|
|------------3-------------------|--------------------------------|

 |    |    |    |    |    |    |    |
|--------------------------------|--------------------------------|
|--------------------------------|--------------------------------|
|1-----------1---1-----------1---|3-----------3---3---------------|
|--------------------------------|--------------------------------|

 |    |    |    |    |    |    |    |
|--------------------------------|--------------------------------|
|--------------------------------|--------------------------------|
|3-----------3---3---------------|1-----------1---1---------------|
|----------------------------3---|--------------------------------|

 |    |    |    |    |    |    |    |
|--------------------------------|--------------------------------|
|--------------------------------|--------------------------------|
|1-----------1---1-----------1---|--------------------------------|
|--------------------------------|4-----------4---4-----------4---|

 |    |    |    |    |    |    |    |
|--------------------------------|--------------------------------|
|--------------------------------|------------------------1-------|
|--------------------------------|3---------------1---3-----------|
|3-------------------------------|------------3-------------------|

 |    |    |    |    |    |    |    |
|--------------------------------|--------------------------------|
|--------------------------------|------------------------1-------|
|3---------------1---3-----------|3---------------1---3-----------|
|------------3-------------------|------------3-------------------|

 |    |    |    |
|--------------------------------|
|--------------------------------|
|3---------------1---3-----------|and so on
|------------3-------------------|

Almost there ...

Sign in to get your own page with links to favourite songs and more. You are just one click away...

Login with Facebook Login with Google