Log in

One click and you are in

Login with Facebook Login with Google

Why sign up and log in

Guitar Tabs Explorer
Gary Moore tabs for Enough of the blues

Guitar tabs

Album: Back to the blues (2001) Track No: 1
Version: Album Version


I tabbed this song all by myshelf, 10/2 2001 Saturday.


Intro
                   x3
e:|-----------|------|--3-| The first two times you play
B:|-----------|------|----| part I and II. The third time
G:|-----------|------|----| You play I and III.
D:|---5-5/8\5-|--3h5-|----|
A:|-----------|------|----|
E:|--3--------|-3----|----|
        I        II    III

Vers 1

e:|----------------||----|----------------------------|
B:|----------------||----|----------------------------|
G:|----------------||-5~-|----------------------------|
D:|--5/8\5---3h5-5-||----|--5/8\5--3h5---5/8\5--3h5--5|
A:|--------------3-||----|---------------------------3|
E:|-3------3-------||----|-3------3----3-------3------|


e:|-----|--------------------3-|
B:|-----|----------------------|
G:|-----|----------------------|
D:|-3-5-|--5/8\5--3h5--5/8\5---|
A:|-1-3-|----------------------|
E:|-----|-3------3----3--------|

e:|----------------|--------------------3-| First Clean
B:|----------------|----------------------| Guitar Part
G:|----------------|----------------------| Ends
D:|----------------|-5/8\5---3h5--5/8\5---|
A:|-12--12-10------|----------------------|
E:|-10--10-8--10/3-|-3------3----3--------|


Vers 2

e:|---|---|----------------------------|---|
B:|---|---|----------------------------|---|
G:|---|---|----------------------------|---|
D:|---|-5-|---5/8\5--3h5---5/8\5---3h5-|-5-|
A:|-5-|-3-|----------------------------|-3-|
E:|-3-|---|-3-------3----3--------3----|---|


e:|---------------------------|-------------|
B:|---------------------------|-------------|
G:|---------------------------|-------------|
D:|--5/8\5---3h5---5/8\5--3h5-|-7---7-5---3-|
A:|---------------------------|-5---5-3---5-|
E:|-3------3-----3-------3----|-------------|

e:|-------------------------|
B:|-------------------------|
G:|-------------------------|
D:|--5/8\5--3h5--5/8\5--3h5-|
A:|-------------------------|
E:|-3------3----3------3----|


Vers 3 (identical to vers 2)

Fill

e:|
B:|
G:|-12^(14)-12^(14)-12^(14)-12^(14)-12-10-12~-|
D:|
A:|
E:|


e:|------------------------------------------|
B:|------------------------------------------|
G:|-12^(14)-12^(14)-12^(14)-12^(14)-12-10-11-|
D:|------------------------------------------|
A:|------------------------------------------|
E:|------------------------------------------|


Vers 4



Then you have to go back to the clean part again
but just do as above and you'll make it.


Thats's all what I have to offer- I hope you not get upset
that I didn't bring all the fills and solos but it is just
to improvise in G-blues scale and you can make it sound
even cooler.

Any comments, corrections and other stuff; send them to:

olle0392@hotmail.com

Have fun

Olle

Almost there ...

Sign in to get your own page with links to favourite songs and more. You are just one click away...

Login with Facebook Login with Google