Wolves From The Fog by Moonspell

Wolves From The Fog bass tab by Moonspell

Bass tabs

RIFF 1
E---------|
A-7-----6-|
D---9-8---|
G---------|

RIFF 2
E-----------------------------|
A-7-7-7-7-7-7-7-7-6-6-6-6-6-6-|
D-----------------------------|
G-----------------------------|

RIFF 3
E---------------------------------|
A-7-7-----7-7-----6-6-----6-6-----|
D-----5-5-----5-5-----5-5-----5-5-|
G---------------------------------|

RIFF 4
E---------------------------------|
A-9-9-----9-9-----8-8-----8-8-----|
D-----7-7-----7-7-----7-7-----7-7-|
G---------------------------------|

RIFF 5
E----------------------------------------------------------|
A-7-7-7-7-7-7-6-6-6-6-6-6-7-7-7-7-7-7-11-11-11-9-9-9-9-9-9-|
D----------------------------------------------------------|
G----------------------------------------------------------|

RIFF 6
E----------------------|
A-5-5-5-5-5-10-9-------|
D-------------------10-|
G----------------------|

RIFF 7
E----------------|
A-7-7-9-11-10-10-|
D----------------|
G----------------|

RIFF 8
E---3-----|
A-1---2-7-|
D---------|
G---------|

STRUCTURE:
RIFF 1 2X (00:03)
RIFF 2 4X (00:29)
RIFF 3 2X (01:38)
RIFF 4 2X (01:48)
RIFF 5 4X (02:10)
RIFF 6 12X (02:35)
RIFF 5 3X (03:11)
RIFF 7 14X (03:36)
RIFF 6 12X (04:14)
RIFF 8 10X (05:19)

Find guitar tabs and chords

A B C D E F G H I J K L M N O P Q R S T U V W X Y Z #