The Last Of Us by Moonspell

The Last Of Us tab by Moonspell

Guitar tabs

INTRO a)
    |gtr1
    |-----------------------------------------|-----------------------------------------------|
    |--8---8---\13---13-\15---15---15---15----|--8---8---\13---13-/10---10---10\11-11---10----|
    |----0---0-----0--------0----0----0----0--|----0---0-----0--------0----0----------0----0--|
    |-----------------------------------------|-----------------------------------------------|
    |-----------------------------------------|-----------------------------------------------|
    |-----------------------------------------|-----------------------------------------------|

INTRO b)
    |gtr1
    |-----------------------------------------|-----------------------------------------------|
    |--8---8---\13---13-\15---15---15---15----|--8---8---\13---13-/10---10---10\11-11---10----|
    |----0---0-----0--------0----0----0----0--|----0---0-----0--------0----0----------0----0--| x2
    |-----------------------------------------|-----------------------------------------------|
    |-----------------------------------------|-----------------------------------------------|
    |-----------------------------------------|-----------------------------------------------|
    |gtr2
       G D# F G D# C x2

    |gtr1
    |-------------------------------------------|
    |-11p10h11p10h11p10h11p10h11p10h11p10-------|
    |-------------------------------------------|
    |-------------------------------------------|
    |-------------------------------------------|
    |-------------------------------------------|

VERSE
    |gtr1
    |-------------------------------------------------------------------|
    |-------------------------------------------------------------------|
    |------------------------15-15-15-12---------15---15---15-15-15-15--|
    |------------------------15-15-15-12---------15---15---15-15-15-15--|
    |------------------------13-13-13-10---------13---13---13-13-13-13--|
    |-------------------------------------------------------------------|
    |gtr2
    |-------------------------------------------------------------------|
    |-------------------------------------------------------------------|
    |-------------------------------------------------------------------|
    |--8-------------------------------5--------------------------------|
    |--8-------------------------------5--------------------------------|
    |--6-6-6-6-6-6-6-6-6-6-6-6-6-6-6-6-3-3-3-3-3-3-3-3-3-3-3-3-3-3-3-3--|
     ..PM..............................................................

    |gtr1
    |-------------------------------------------------------------------|
    |-------------------------------------------------------------------|
    |------------------------15-15-15-12-----15--15---15-15-15-15-15-15-|
    |------------------------15-15-15-12-----15--15---15-15-15-15-15-15-|
    |------------------------13-13-13-10-----13--13---13-13-13-13-13-13-|
    |-------------------------------------------------------------------|
    |gtr2
    |-------------------------------------------------------------------|
    |-------------------------------------------------------------------|
    |-------------------------------------------------------------------|
    |--8-------------------------------5--------------------------------|
    |--8-------------------------------5--------------------------------|
    |--6-6-6-6-6-6-6-6-6-6-6-6-6-6-6-6-3-3-3-3-3-3-3-3-3-3-3-3-3-3-3-3--|
     ..PM..............................................................

    |gtr1
    |-------------------------------------------------------------------|
    |-------------------------------------------------------------------|
    |------------------------15-15-15-12---------15---15---15-15-15-15--|
    |------------------------15-15-15-12---------15---15---15-15-15-15--|
    |------------------------13-13-13-10---------13---13---13-13-13-13--|
    |-------------------------------------------------------------------|
    |gtr2
    |-------------------------------------------------------------------|
    |-------------------------------------------------------------------|
    |-------------------------------------------------------------------|
    |--8-------------------------------5--------------------------------|
    |--8-------------------------------5--------------------------------|
    |--6-6-6-6-6-6-6-6-6-6-6-6-6-6-6-6-3-3-3-3-3-3-3-3-3-3-3-3-3-3-3-3--|
     ..PM..............................................................

    |gtr1
    |-------------------------------------------------------------------|
    |-------------------------------------------------------------------|
    |------------------------15-15-15-12--------------------------------|
    |------------------------15-15-15-12--------------------------------|
    |------------------------13-13-13-10--------------------------------|
    |-------------------------------------------------------------------|
    |gtr2
    |-------------------------------------------------------------------|
    |-------------------------------------------------------------------|
    |-------------------------------------------------------------------|
    |--8-------------------------------5--------------------------------|
    |--8-------------------------------5--------------------------------|
    |--6-6-6-6-6-6-6-6-6-6-6-6-6-6-6-6-3-3-3-3-3-3-3-3-3-3-3-3-3-3-3-3--|
     ..PM..............................................................


CHORUS
    repeat INTRO b) but instead of x2 it is x4

VERSE
    repeat


BRIDGE
    |gtr1
    |-----------------------------------|
    |------4------4--------6-------6----|
    |----3--3---3---3----5---5---5---5--|
    |--5------5--------7-------7--------| x2
    |-----------------------------------|
    |-----------------------------------|

    |gtr1
    |--------------------------------------------|
    |---------------------------------------8----|
    |-------------------------------------8---8--|
    |--8...-7...-10...-8...-12...10...-10--------|
    |--------------------------------------------|
    |--------------------------------------------|
    |gtr2
       Gm Am A# (Cm)


CHORUS
    repeat


GUITAR SOLO (notes from CHORUS on the background)
    |gtr1
    |------6----6-----|------6----6-----|------8----8-----|------10---10-----10--10\13--10-8-|
    |--6-8---10---10--|--6-8---10---10--|--6-8---10---10--|--6-8----8----8-------------------|
    |-----------------|-----------------|-----------------|----------------------------------|
    |-----------------|-----------------|-----------------|----------------------------------|
    |-----------------|-----------------|-----------------|----------------------------------|
    |-----------------|-----------------|-----------------|----------------------------------|


OUTRO
  pt1
    |gtr1
    |---------------------------------------------------|
    |---------------------------------------------------|
    |---------------------------------------------------| x2
    |---------------------------------------------------|
    |---------------------------------------------------|
    |--3--\6-5~--5h6--p5/1-h3--\6-8~--/5--6-5h6p5/1-h3--|

  pt2
    |gtr1
    |---------------------------------------------------|
    |---------------------------------------------------|
    |---------------------------------------------------| x2
    |---------------------------------------------------|
    |---------------------------------------------------|
    |--3--\6-5~--5h6--p5/1-h3--\6-8~--/5--6-5h6p5/1-h3--|
    |gtr2
    |-----------------------------------------|------------------------------------------------|
    |--6-8-8\11-8---10\11-10-----11----11-10--|--6-8-8\11-8---11-11\13-----10---11-10h11p10----|
    |--------------------------0-----0--------|--------------------------0------------------0--|
    |-----------------------------------------|------------------------------------------------|
    |-----------------------------------------|------------------------------------------------|
    |-----------------------------------------|------------------------------------------------|

    |gtr1
    |---------------------------------------------------|
    |---------------------------------------------------|
    |---------------------------------------------------|
    |---------------------------------------------------|
    |---------------------------------------------------|
    |--3--\6-5~--5h6--p5/1-h3--\6-8~--/5--6-5h6p5-3-----|
    |gtr2
    |-----------------------------------------|------------------------------------------------|
    |--6-8-8\11-8---10\11-10-----11----11-10--|--6-8-8\11-8---11-11\13-----10---11-10h11p10-8--|
    |--------------------------0-----0--------|--------------------------0---------------------|
    |-----------------------------------------|------------------------------------------------|
    |-----------------------------------------|------------------------------------------------|
    |-----------------------------------------|------------------------------------------------|

Please rate so that I keep submiting tabs :) thanks and enjoy this great Portuguese band!

Find guitar tabs and chords

A B C D E F G H I J K L M N O P Q R S T U V W X Y Z #