Lickanthrope by Moonspell

Lickanthrope tab by Moonspell

Guitar tabs

By Suif

Riff1 (Intro):

e:|---------------------------------|
b:|---------------------------------|
g:|---------------------------------|
d:|---2--6-5--2--6-5--2--6-5--------|
a:|---2--6-5--2--6-5--2--6-5--2p0h3-|
E:|---0--4-3--0--4-3--0--4-3--------|

Riff2:

e:|---------------------------------------|
b:|--------------------------------0------|
g:|-------------------------------2-2-----|
d:|---2--6-5--2--6-5--2--6-5-----3---3----|
a:|---2--6-5--2--6-5--2--6-5----2-----0---|
E:|---0--4-3--0--4-3--0--4-3--0-----------|

Melody 1:

e:|---------------------------------|
b:|---------------------------------|
g:|------0-0-2----------------------|
d:|---2---------0h3-0h3-2p3h2-------|
a:|---2-----------------------------|
E:|---0-----------------------------|

Verse:

e:|------------------------------------|
b:|------------------------------------|
g:|------------------------------------|
d:|---7--7-6--7--7-6--7--7-6--7-8-8-8--|
a:|---7--7-6--7--7-6--7--7-6--7-8-8-8--|
E:|---5--5-4--5--5-4--5--5-4--5-6-6-6--|

Verse (variation):

e:|------------------------------------|
b:|------------------------------------|
g:|------------------------------------|
d:|------------------------------------|
a:|------------------------------------|
E:|---5--5-4--5--5-4--5--5-4--5-6-6-6--|

Melody 2:

e:|---------------------------------|
b:|---------------------------------|
g:|--------2---2--2-1---------------|
d:|---2--3---3----------------------|
a:|---2-----------------------------|
E:|---0-----------------------------|

Melody 2 (Second guitar):

e:|---------------------------------|
b:|-------3--3/5--------------------|
g:|---------------------------------|
d:|---2-----------------------------|
a:|---2-----------------------------|
E:|---0-----------------------------|

Effects:

e:|---prebend-12r---or-13-12v----|
b:|------------------------------|
g:|------------------------------|
d:|------------------------------|
a:|------------------------------|
E:|------------------------------|

Riff3:

e:|---------------------------------|
b:|---------------------------------|
g:|---------------------------------|
d:|---22222666655552222666555-------|
a:|---------------------------------|
E:|---------------------------------|

Outro:

e:|----------------------------------------|
b:|----------------------------------------|
g:|----4-4-3-4-4-4-3-4-4-4-3-4-5-5-5-5-----|
d:|----2-2-1-2-2-2-1-2-2-2-1-2-3-3-3-3-----|
a:|----------------------------------------|
E:|----------------------------------------|

Find guitar tabs and chords

A B C D E F G H I J K L M N O P Q R S T U V W X Y Z #