Log in

One click and you are in

Login with Facebook Login with Google

Why sign up and log in

Guitar Tabs Explorer
Moonpools And Caterpillars bass tabs for Hear

Bass tabs with lyrics

G----------------------------------
D---------------------------------- intro
A------4-4------4-4-----------------
E---5-5-5----3-3-3-----------------
 play intro 4x before wierd guitar comes in
G-------------------14---------------
D---------------------------------- intro
A------4-4------4-4-----------------
E---5-5-5----3-3-3-----------------
play it another 4x after the wierd guitar with a slide all the way up the neck

then the verse, chorus, and bridge are all the same notes

G-----------------------------
D----------------------------- verse
A-----7-5-7-------------------- chorus
E---5------------------------- bridge

i like to stick some fills in here like
G-----------------------------
D----------------------------- verse
A-----7-5-7-(5,4,5)----------- chorus
E---5------------------------- bridge

for the verse, chorus, and bridge you can play each note 4x except fills if you use them if you do use the fills then when you go back to the 7th fret then only hit it twice and each fill once
G-----------------------------
D----------------------------- verse
A-----7-5-7-(5,4,5)----------- chorus
E---5------------------------- bridge

i tabbed this by ear so if it doesn't sound right then adjust your A string to the song and then fix the rest of your strings according to the A

Hope you like it!
-allie

ⓘ Bass guitar tab for 'Hear' by, a female blues artist from Tennessee, United States. was born in 1957.

Almost there ...

Sign in to get your own page with links to favourite songs and more. You are just one click away...

Login with Facebook Login with Google