Log in

One click and you are in

Login with Facebook Login with Google

Why sign up and log in

Guitar Tabs Explorer
The Moody Blues bass tabs for Stop

Bass tabs

moody_blues/stop.btab

Basstab by Jan Bjorklund, Finland;
jani_bjorklund@yahoo.se
You are welcome to request for basstabs!
Bienvenidos a pedirme transcripciones para el bajo!

TablEdited by Jan Bjorklund

Tuning : E A D G 	Time Signature: 2/4

 |    |    |    |    |    |    |    |
|----------------|2---------------|----------------|4---------------|
|--------2-------|----------------|----------------|--------2-------|
|2---------------|----------------|----------------|----------------|
|----------------|----------------|--------5-------|----------------|

 |    |    |    |    |    |So you talk... |
|2---------------|--------2-------|4---------------|2---------------|
|----------------|----------------|----------------|----------------|
|----------------|----------------|----------------|----------------|
|----------------|----------------|----------------|----------------|

 |    |    |    |    |    |    |    |
|----------------|2-----------2---|----------------|--------2-------|
|2-----------2---|----------------|0---------------|0---------------|
|----------------|----------------|----------------|----------------|
|----------------|----------------|----------------|----------------|

 |    |    |    |Just the thought...   |    |
|----------------|----------------|2-----------2---|----------------|
|4-----------4---|--------2-------|----------------|2-----------2---|
|----------------|2---------------|----------------|----------------|
|----------------|----------------|----------------|----------------|

 |    |    |    |    |    |    |    |
|2-----------2---|----------------|--------2-------|----------------|
|----------------|0-------0-------|4---------------|4-----------4---|
|----------------|----------------|----------------|----------------|
|----------------|----------------|----------------|----------------|

 |    |    |    |    |    |    |    |
|--------6-------|----------------|----------------|----------------|
|7---------------|5---------------|5-----------5---|5-------5---5---|
|----------------|----------------|----------------|----------------|
|----------------|----------------|----------------|----------------|

 |    |    |    |    |    |    |    |
|----------------|2---------------|2---2---2---2---|2---------------|
|5---5---5---5---|----------------|----------------|----------------|
|----------------|----------------|----------------|----------------|
|----------------|----------------|----------------|----------------|

 |    |    Stop, stop...  |    |    |    |
|2---2---2-------|2---------------|----------------|----------------|
|----------------|--------0-------|----------------|----------------|
|----------------|----------------|----------------|----------------|
|----------------|----------------|----------------|----------------|

Almost there ...

Sign in to get your own page with links to favourite songs and more. You are just one click away...

Login with Facebook Login with Google