Log in

One click and you are in

Login with Facebook Login with Google

Why sign up and log in

Guitar Tabs Explorer
The Moody Blues bass tabs for Nights in white satin

Nights In White Satin bass tab by The Moody Blues

The Moody Blues bass tabs for Nights in white satin

Bass tabs

moody_blues/nights_in_white_satin.btab

Basstab by Jan Bjorklund, Finland;
jani_bjorklund@yahoo.se
You are welcome to request for basstabs!
Bienvenidos a pedirme transcripciones para el bajo!

TablEdited by Jan Bjorklund

Tuning : E A D G 	Time Signature: 6/8

 | Tempo 80       |
|------------------------------------------------|
|------------------------------------------------|
|------------------------------------------------|
|------------------------------------------------|

 |            |
|------------------------------------------------|
|------------------------------------------------|
|----------------------------------------5-------|
|------------------------------------7-------7---|

 |            |
|--------------------------------9---------------|
|------------------------7---9-----------9-------|
|7-----------------------------------------------|
|------------------------------------------------|

 |            |
|------------------------------------------------|
|------------------------------------------------|
|5-----------------------------------------------|
|----------------------------------------7-------|

 |            |
|------------------------------------------------|
|------------------------------------------------|
|7-----------------------------------------------|
|------------------------------------------------|

 |            |
|------------------------------------------------|
|------------------------------------------------|
|5-----------------------------------------------|
|------------------------------------7---7-------|

 |            |
|------------------------------------------------|
|------------------------------------------------|
|7-----------------------------------------------|
|------------------------------------------------|

 |            |
|------------------------------------------------|
|------------------------------------------------|
|5---------------------------------------5-------|
|------------------------------------------------|

 |            |
|------------------------------------------------|
|------------------------------------------------|
|3---------------------------------------3-------|
|------------------------------------------------|

 |            |
|------------------------------------------------|
|5---------------------------------------5-------|
|------------------------------------------------|
|------------------------------------------------|

 |            |
|------------------------------------------------|
|3---------------------------------------3-------|
|------------------------------------------------|
|------------------------------------------------|

 |            |
|------------------------------------------------|
|------------------------------------------------|
|7-----------------------------------------------|
|------------------------------------------------|

 |            |
|------------------------------------------------|
|------------------------------------------------|
|7-----------------------------------------------|
|------------------------------------------------|

 |            |
|------------------------------------------------|
|------------------------------------------------|
|5-----------------------------------------------|
|------------------------------------------------|

 |            |
|------------------------------------------------|
|------------------------------------------------|
|7-----------------------------------------------|
|------------------------------------------------|

 |            |
|------------------------------------------------|
|------------------------------------------------|
|5---------------------------------------5-------|
|------------------------------------------------|

 |            |
|------------------------------------------------|
|------------------------------------------------|
|3---------------------------------------3-------|
|------------------------------------------------|

 |            |
|------------------------------------------------|
|5---------------------------------------5-------|
|------------------------------------------------|
|------------------------------------------------|

 |            |
|------------------------------------------------|
|3---------------------------------------3-------|
|------------------------------------------------|
|------------------------------------------------|

 |            |
|------------------------------------------------|
|------------------------------------------------|
|7---------------------------------------7-------|
|------------------------------------------------|

 |            |
|------------------------------------------------|
|7-----------------------7-----------------------|
|------------------------------------------------|
|------------------------------------------------|

 |            |
|------------------------------------------------|
|7-----------------------7-------7-------7-------|
|------------------------------------------------|
|------------------------------------------------|

 |            |
|------------------------------------------------|
|------------------------------------------------|
|3-----------------------3-----------------------|
|------------------------------------------------|

 |            |
|------------------------------------------------|
|------------------------------------------------|
|3-----------------------3-------3-------3-------|
|------------------------------------------------|

 |            |
|------------------------------------------------|
|------------------------------------------------|
|7-------7-------7-------7-------7-------7-------|
|------------------------------------------------|

 |            |
|------------------------------------------------|
|------------------------------------------------|
|5-------5-------5-------5-------5-------5-------|
|------------------------------------------------|

 |            |
|------------------------------------------------|
|------------------------------------------------|
|7-------7-------7-------7-------7-------7-------|
|------------------------------------------------|

 |            |
|------------------------------------------------|
|------------------------------------------------|
|5-------5-------5-------5-------5-------5-------|
|------------------------------------------------|

 |            |
|------------------------------------------------|
|------------------------------------------------|
|7-----------------------------------------------|
|------------------------------------------------|

 |            |
|------------------------------------------------|
|------------------------------------------------|
|5-----------------------------------------------|
|------------------------------------------------|

 |            |
|------------------------9-----------------------|
|--------------------------------------9---------|
|7-----------------------------------------------|
|------------------------------------------------|

 |            |
|------------------------------------------------|
|------------------------------------------------|
|5---------------------------------------5-------|
|------------------------------------------------|

 |            |
|------------------------------------------------|
|----------------5-------5-----------------------|
|3---------------------------------------3-------|
|------------------------------------------------|

 |            |
|------------------------------------------------|
|5---------------------------------------5-------|
|------------------------------------------------|
|------------------------------------------------|

 |            |
|------------------------------------------------|
|3---------------------------------------3-------|
|------------------------------------------------|
|------------------------------------------------|

 |            |
|------------------------------------------------|
|------------------------------------------------|
|7-----------------------------------------------|
|------------------------------------------------|

 |            |
|------------------------------------------------|
|------------------------------------------------|
|7-----------------------------------------------|
|------------------------------------------------|

 |            |
|------------------------------------------------|
|------------------------------------------------|
|5-----------------------------------------------|
|------------------------------------------------|

 |            |
|--------------------------------9---------------|
|----------------------------------------9-------|
|7-----------------------------------------------|
|------------------------------------------------|

 |            |
|------------------------------------------------|
|------------------------------------------------|
|5---------------------------------------5-------|
|------------------------------------------------|

 |            |
|------------------------------------------------|
|------------------------------------------------|
|3---------------------------------------3-------|
|------------------------------------------------|

 |            |
|------------------------------------------------|
|5-----------------------5---------------5-------|
|------------------------------------------------|
|------------------------------------------------|

 |            |
|------------------------------------------------|
|3---------------------------------------3-------|
|------------------------------------------------|
|------------------------------------------------|

 |            |
|------------------------------------------------|
|------------------------------------------------|
|7-------------------------------7-------7-------|
|------------------------------------------------|

 |            |
|------------------------------------------------|
|7-----------------------7-----------------------|
|------------------------------------------------|
|------------------------------------------------|

 |            |
|------------------------------------------------|
|7-----------------------7-------7-------7-------|
|------------------------------------------------|
|------------------------------------------------|

 |            |
|------------------------------------------------|
|------------------------------------------------|
|3---------------3-------3-----------------------|
|------------------------------------------------|

 |            |
|------------------------------------------------|
|------------------------------------------------|
|3-----------------------3-------3-------3-------|
|------------------------------------------------|

 |            |
|------------------------------------------------|
|------------------------------------------------|
|7-------7-------7-------7-------7-------7-------|
|------------------------------------------------|

 |            |
|------------------------------------------------|
|------------------------------------------------|
|5-------5-------5-------5-------5-------5-------|
|------------------------------------------------|

 |            |
|------------------------------------------------|
|------------------------------------------------|
|7-------7-------7-------7-------7-------7-------|
|------------------------------------------------|

 |            |
|------------------------------------------------|
|------------------------------------------------|
|5-------5-------5-------5-------5-------5-------|
|------------------------------------------------|

 |            |
|------------------------9-----------------------|
|--------------------------------9---------------|
|7---------------------------------------10------|
|------------------------------------------------|

 |            |
|------------------------------------------------|
|------------------------------------------------|
|7-----------------------------------------------|
|------------------------------------------------|

 |            |
|------------------------------------------------|
|------------------------------------------------|
|------------------------------------------------|
|------------------------------------------------|

 |            |
|------------------------------------------------|
|------------------------------------------------|
|------------------------------------------------|
|------------------------------------------------|

 |            |
|------------------------------------------------|
|------------------------------------------------|
|------------------------------------------------|
|------------------------------------------------|

 |            |
|------------------------------------------------|
|------------------------7h9-----7h9-----7h9-----|
|------------------------------------------------|
|------------------------------------------------|

 |            |
|--------------------------------9---------------|
|----------------------------------------9-------|
|7-----------------------------------------------|
|------------------------------------------------|

 |            |
|--------------------------------7---------------|
|----------------------------------------7-------|
|5-----------------------------------------------|
|------------------------------------------------|

 |            |
|--------------------------------5---------------|
|------------------------------------------------|
|3---------------------------------------3-------|
|------------------------------------------------|

 |            |
|--------------------------------4-------4-------|
|------------------------------------------------|
|2-----------------------------------------------|
|------------------------------------------------|

 |            |
|--------------------------------9---------------|
|----------------------------------------9-------|
|7-----------------------------------------------|
|------------------------------------------------|

 |            |
|------------------------------------------------|
|------------------------5-----------------------|
|3-------------------------------3-------3-------|
|------------------------------------------------|

 |            |
|--------------------------------9---------------|
|----------------------------------------9-------|
|7-----------------------------------------------|
|------------------------------------------------|

 |            |
|------------------------------------------------|
|----------5-------------5-----------------------|
|3-------------------------------3-------3-------|
|------------------------------------------------|

 |            |
|------------------------------------------------|
|7-------------7---------7-------7-------7-------|
|------------------------------------------------|
|------------------------------------------------|

 |            |
|------------------------------------------------|
|9-------------------------------9-------9-------|
|------------------------------------------------|
|------------------------------------------------|

 |            |
|------------------------------------------------|
|7-------7-------7-------7-------7-------7-------|
|------------------------------------------------|
|------------------------------------------------|

 |            |
|------------------------------------------------|
|------------------------------------------------|
|------------------------------------------------|
|7-------7-------7-------7-------7-------7-----6-|

 |            |
|------------------------------------------------|
|------------------------------------------------|
|7-------7-------7-------7-------7-------7-------|
|------------------------------------------------|

 |            |
|------------------------------------------------|
|------------------------------------------------|
|5-------5-------5-------5-------5-------5-------|
|------------------------------------------------|

 |            |
|------------------------------------------------|
|------------------------------------------------|
|3-------3-------3-------3-------3-------3-------|
|------------------------------------------------|

 |            |
|------------------------------------------------|
|------------------------------------------------|
|7-------7-------7-------7-------7-------7-------|
|------------------------------------------------|

 |            |
|------------------------------------------------|
|------------------------------------------------|
|5-------5-------5-------5-------5-------5-------|
|------------------------------------------------|

 |            |
|------------------------------------------------|
|------------------------------------------------|
|7-------7-------7-------7-------7-------7-------|
|------------------------------------------------|

 |            |
|------------------------------------------------|
|------------------------------------------------|
|5-------5-------5-------5-------5-------5-------|
|------------------------------------------------|

 |            |
|------------------------------------------------|
|------------------------------------------------|
|7-----------------------------------------------|
|------------------------------------------------|

 |            |
|------------------------------------------------|
|------------------------------------------------|
|5-----------------------------------------------|
|------------------------------------------------|

 |            |
|------------------------------------------------|
|------------------------------------------------|
|7-----------------------------------------------|
|------------------------------------------------|

 |            |
|------------------------------------------------|
|------------------------------------------------|
|5---------------------------------------5-------|
|------------------------------------------------|

 |            |
|------------------------------------------------|
|------------------------------------------------|
|3---------------------------------------3-------|
|------------------------------------------------|

 |            |
|------------------------------------------------|
|5---------------------------------------5-------|
|------------------------------------------------|
|------------------------------------------------|

 |            |
|------------------------------------------------|
|3---------------------------------------3-------|
|------------------------------------------------|
|------------------------------------------------|

 |            |
|------------------------------------------------|
|----------------------------------------9-------|
|7-----------------------------------------------|
|------------------------------------------------|

 |            |
|------------------------------------------------|
|------------------------------------------------|
|7-------7-------7-------7-------7-------7-------|
|------------------------------------------------|

 |            |
|------------------------------------------------|
|------------------------------------------------|
|5-------5-------5-------5-------5-------5-------|
|------------------------------------------------|

 |            |
|------------------------------------------------|
|------------------------------------------------|
|7-------7-------7-------7-------7-------7-------|
|------------------------------------------------|

 |            |
|------------------------------------------------|
|------------------------------------------------|
|5-------5-------5-------5-------5-------5-------|
|------------------------------------------------|

 |            |
|------------------------------------------------|
|------------------------------------------------|
|3-------3-------3-------3-------3-------3-------|
|------------------------------------------------|

 |            |
|------------------------------------------------|
|5-------5-------5-------5-------5-------5-------|
|------------------------------------------------|
|------------------------------------------------|

 |            |
|------------------------------------------------|
|3-------3-------3-------3-------3-------3-------|
|------------------------------------------------|
|------------------------------------------------|

 |            |
|------------------------------------------------|
|------------------------------------------------|
|7-------7-------7-------7-------7-------7-------|
|------------------------------------------------|

 |            |
|------------------------------------------------|
|7-----------------------7-----------------------|
|------------------------------------------------|
|------------------------------------------------|

 |            |
|------------------------------------------------|
|7-----------------------7-------7-------7-------|
|------------------------------------------------|
|------------------------------------------------|

 |            |
|------------------------------------------------|
|------------------------------------------------|
|3-------3-------3-------3-------3-------3-------|
|------------------------------------------------|

 |            |
|------------------------------------------------|
|------------------------------------------------|
|3-------3-------3-------3-------3-------3-------|
|------------------------------------------------|

 |            |
|------------------------------------------------|
|------------------------------------------------|
|7-------7-------7-------7-------7-------7-------|
|------------------------------------------------|

 |            |
|------------------------------------------------|
|------------------------------------------------|
|5-------5-------5-------5-------5-------5-------|
|------------------------------------------------|

 |            |
|------------------------------------------------|
|------------------------------------------------|
|7-------7-------7-------7-------7-------7-------|
|------------------------------------------------|

 |            |
|------------------------------------------------|
|------------------------------------------------|
|5-------5-------5-------5-------5-------5-----7-|
|------------------------------------------------|

 |            |
|------------------------------------------------|
|----------------------------------------------5-|
|--------7---7-------7---7-------7---7-------7---|
|------------------------------------------------|

 |            |
|------------------------------------------------|
|--------5---5-------5---5-------5---5-------5---|
|------------------------------------------------|
|------------------------------------------------|

 |            |
|------------------------------------------------|
|7-----------------------7-----------------------|
|------------------------------------------------|
|------------------------------------------------|

 |            |
|------------------------------------------------|
|7-----------------------7-------7-------7/--5---|
|------------------------------------------------|
|------------------------------------------------|

 |            |
|------------------------------------------------|
|------------------------------------------------|
|--------3-------3---------------3-------3-------|
|------------------------------------------------|

 |            |
|------------------------------------------------|
|------------------------------------------------|
|--------3-------3---------------3-------3-------|
|------------------------------------------------|

 |            |
|------------------------------------------------|
|------------------------------------------------|
|7-------7-------7-------7-------7-------7-------|
|------------------------------------------------|

 |            |
|------------------------------------------------|
|------------------------------------------------|
|5-------5-------5-------5-------5-------5-------|
|------------------------------------------------|

 |            |
|------------------------------------------------|
|------------------------------------------------|
|7-------7-------7-------7-------7-------7-------|
|------------------------------------------------|

 |            |
|------------------------------------------------|
|------------------------------------------------|
|5-------5-------5-------5-------5-------5-------|
|------------------------------------------------|

 |            |
|------------------------------------------------|
|------------------------------------------------|
|7-----------------------------------------------|
|------------------------------------------------|

 |            |
|------------------------------------------------|
|------------------------------------------------|
|7-7-7-7-7-7-7-7-7-7-7-7-7-7-7-7-7-7-7-7-7-7-7---|
|------------------------------------------------|

Almost there ...

Sign in to get your own page with links to favourite songs and more. You are just one click away...

Login with Facebook Login with Google