Log in

One click and you are in

Login with Facebook Login with Google

Why sign up and log in

Guitar Tabs Explorer
The Moody Blues chords for Never comes the day

Never Comes The Day chords by The Moody Blues

The Moody Blues chords for Never comes the day

Guitar chords with lyrics

Pick Intro
                             po                po                 po
-0--------------------------2-0--------0------3-0-----------------2-0----------
-5-------3--5-------0-0---------3------5----------3-0------0-----------3-0-----
----0---------0---------0---------0-------0-----------0-------0------------0---
------0---------0---------0---------0-------0-----------0-------0------------0-
-3-------3--3--------------------------3------3---3-3--------------------------
--------------------0-3------------------------------------3------3----3-3-----

Pick Second
------------------------3-----------------------------------3-----------
-1-----1-----1-----0----------0------1-----1-----1-----0----------0-----
---0-----0-------0---0----0-----0------0-----0-------0---0----0-----0--
-----2-----0-0h2-------0----0------------2-----0-0h2-------0----0-------
-3-----2-----------------------------3-----2----------------------------
-------------------3-----------------------------------3----------------

Finger Picking
A chord diagramC majorC           A chord diagramG+G     A chord diagramC majorC          A chord diagramBB
Work away today, work away tomorrow.
A chord diagramC majorC                A chord diagramG+G       Pick Second 1/2
Never comes the day for my love  and me.
Pick Intro                                     A chord diagramD7D7
I feel her gently sighing as the evening slips away.
A chord diagramG+G           A chord diagramD7D7           A chord diagramG+G           A chord diagramD7D7
If only you knew what's inside of me now
A chord diagramG+G                    A chord diagramD7D7          A chord diagramG+G      Bass A chord diagramG+G A chord diagramA augmentedA A chord diagramBB
You wouldn't want to know me somehow,
     A chord diagramC minorCm  A chord diagramG+G     A chord diagramC minorCm     A chord diagramG+G
But  You will love me tonight,
A chord diagramC majorC     A chord diagramG+G       A chord diagramD MajorD     A chord diagramC majorC
We alone will be al--right,
               A chord diagramG+G
In-------- the end.

A chord diagramG+G    A chord diagramC majorC      A chord diagramG+G      A chord diagramC majorC    A chord diagramG+G      4th strg 0-ho-2 /  5th strg 0-ho-2
Give just a little bit more
Take a little bit less
From each other tonight
Admit what you're feeling
And see what's in front of you,
It's never out of your sight.
You know it's true,
We all know that it's true.

A chord diagramG+G    A chord diagramC majorC      A chord diagramG+G      A chord diagramC majorC   A chord diagramG+G      4th strg 0-ho-2 /  5th strg 0-ho-2

Pick Intro & Second

Work away today, think about tomorrow
Never comes the day for my love and me.
I feel her gently sighing as the evening slips away.
If only you knew what's inside of me now
You wouldn't want to know me somehow,
But You will love me tonight,
We alone will be alright,
In the end.


Chorus

Almost there ...

Sign in to get your own page with links to favourite songs and more. You are just one click away...

Login with Facebook Login with Google