Log in

One click and you are in

Login with Facebook Login with Google

Why sign up and log in

Guitar Tabs Explorer
The Moody Blues guitar tabs for Love dont come easy

Guitar tabs

Artist -Moody Blues
Album - Strange Times
Song -Love Don't Come Easy
Transcribed by John King


Solo approximately 3:00 into song

This is my first ever attempt at interpreting and
tabbing something.  Please,
anyone feel free to update/correct/ridicule anything
I've messed up.


E-|-----7---9^11~~~~~-|9^11r9-9^11r9p7------------|---7---7b8~~~----
B-|-7h9---9-----------|----------------9^10r9-7~~~|7h9---9----------
G-|-------------------|---------------------------|-----------------
D-|-------------------|---------------------------|-----------------
A-|-------------------|---------------------------|-----------------
E-|-------------------|---------------------------|-----------------

E-|-7^8~~~~--------|-------------------|---------------------------
B-|--------9^10~~~~|-9^10r9p7-9--------|-------7h9p7---7h9^10~~~~~~
G-|----------------|------------8^9~~~~|---6h8-------6------------
D-|----------------|-------------------|-9-------------------------
A-|----------------|-------------------|---------------------------
E-|----------------|-------------------|---------------------------

Almost there ...

Sign in to get your own page with links to favourite songs and more. You are just one click away...

Login with Facebook Login with Google